Hillsongs - My God Chords & Tabs

 

My God Chords & Tabs

Hillsongs Chords & Tabs

Version: 1 Type: Chords 0 ratings
1 star 2 stars 3 stars 4 stars 5 stars
comments

My God Chords

   
E|---------------------------
B|---------------------------
G|----5-----5-----4-h5-4-5-4-
D|-2-2-2-3-3-3-5-5------5-----
A|---------------------------     
E|---------------------------  (repeat 3x)

E|---------------------------
B|---------------------------
G|----5-----5----------------
D|-2-2-2-3-3-3-5-5-----------
A|---------------------------     
E|---------------------------  
[ Tab from: http://www.guitartabs.cc/tabs/h/hillsongs/my_god_crd.html ]
              F
Your faithful love 
      C           G         A
has always been there for me
              F         C           G
The greatest love that i have ever known
            F          C
What can i give to you
                G        A
For all You've given to me
            F
You gave it all
     C            G
And You are all i need

Pre-chorus: 
           G    A
You are my king, 
            F
You are my God
           G    A
Praises I bring
               F
Come from my heart

Chorus:
             C
This is for You
                G        F
For all You've done for me
         C
and I wanted to show You 
     G        F
How much You mean 
    A  G   
My God,
    F
my God
Comments