Hillsongs - Made Me Glad Chords & Tabs

 

Made Me Glad Chords & Tabs

Hillsongs Chords & Tabs

Version: 1 Type: Tab 0 ratings
1 star 2 stars 3 stars 4 stars 5 stars
comments

Made Me Glad Tab

   
MADE ME GLAD
by Hillsong
Tabbed by: Paolo Rico
Tuning: Standard

Intro:
 
e-0-0-2-2-2-0-0-2-2-2-----------------------|
b-3-3-3-3-3-3-3-3-3-3---0-0-2-2-2-0-0-2-2-2-|
g-2-2-2-2-2-2-2-2-2-2---2-2-2-2-2-2-2-2-2-2-|
d-0-0-0-0-0-0-0-0-0-0---2-2-2-2-2-2-2-2-2-2-| (2x)
a-----------------------0-0-0-0-0-0-0-0-0-0-|
e-------------------------------------------|

Verse:
   I will bless the Lord forever
e-0-0-2-2-2-0-0-2-2-2-----------------------|
b-3-3-3-3-3-3-3-3-3-3---0-0-2-2-2-0-0-2-2-2-|
g-2-2-2-2-2-2-2-2-2-2---2-2-2-2-2-2-2-2-2-2-|
d-0-0-0-0-0-0-0-0-0-0---2-2-2-2-2-2-2-2-2-2-| 
a-----------------------0-0-0-0-0-0-0-0-0-0-|
e-------------------------------------------|

   I will trust Him at all times 
e-0-0-2-2-2-0-0-2-2-2-----------------------|
b-3-3-3-3-3-3-3-3-3-3---0-0-2-2-2-0-0-2-2-2-|
g-2-2-2-2-2-2-2-2-2-2---2-2-2-2-2-2-2-2-2-2-|
d-0-0-0-0-0-0-0-0-0-0---2-2-2-2-2-2-2-2-2-2-| 
a-----------------------0-0-0-0-0-0-0-0-0-0-|
e-------------------------------------------|
[ Tab from: http://www.guitartabs.cc/tabs/h/hillsongs/made_me_glad_tab.html ]
   He has delivered me from all fear
e-0-0-2-2-2-0-0-2-2-2-----------------------|
b-3-3-3-3-3-3-3-3-3-3---0-0-2-2-2-0-0-2-2-2-|
g-2-2-2-2-2-2-2-2-2-2---2-2-2-2-2-2-2-2-2-2-|
d-0-0-0-0-0-0-0-0-0-0---2-2-2-2-2-2-2-2-2-2-| 
a-----------------------0-0-0-0-0-0-0-0-0-0-|
e-------------------------------------------|

   He has set my feet upon a rock
e-0-0-2-2-2-0-0-2-2-2-----------------------|
b-3-3-3-3-3-3-3-3-3-3---0-0-2-2-2-0-0-2-2-2-|
g-2-2-2-2-2-2-2-2-2-2---2-2-2-2-2-2-2-2-2-2-|
d-0-0-0-0-0-0-0-0-0-0---2-2-2-2-2-2-2-2-2-2-| 
a-----------------------0-0-0-0-0-0-0-0-0-0-|
e-------------------------------------------|

Refrain:
Bm             D
I will not be moved 
       Bm            E            
And I'll say of the Lord

Chorus:
             A          Bm             
You are my shield, my strength
    D         E
My portion, deliverer
     A              Bm
My shelter, strong tower
    D            E
My very present help in time of need
 
	(Repeat Intro)

Verse2:
Whom have I in heaven but You?
There's none I desire beside You

Refrain2:
You have made me glad
And I'll say of the Lord

	(Repeat Chorus 2x)
	(Bridge)
	(Repeat Refrain2)
	(repeat Chorus2x)
-----------------------------------------------------------------------------
Glory to God!!!


    -whatever9-
    tracyaces1@yahoo.com
Comments