Hillsongs - Deeply Inlove Chords & Tabs

 

Deeply Inlove Chords & Tabs

Hillsongs Chords & Tabs

Version: 1 Type: Tab

Deeply Inlove Tab

Deeply Inlove
Tabbed by: Angel Blanco
Tuning: Standard

Intro:
|-------------------2h3---3--2--|-----------------3s2-2----------|
|------3--3--3-----3---3---3--3-|------3-3--3----3---------------|
|-----------0-0---2-------------|----------0-0--2----------------|
|----------------0-----------0--|--------------0------0----------|
|---2--2--3---------------------|--0h2-2-3-----------------------|
|--0----------------------3-----|-0------------------------------|


Verse:
[ Tab from: http://www.guitartabs.cc/tabs/h/hillsongs/deeply_inlove_tab.html ]
|-------------------2h3---3--2--|------------------3-------------|
|------3--3--3-----3---3---3--3-|------3-3--3----3---------------|
|-----------0-0---2-------------|----------0-0--2----------------|
|----------------0-----------0--|--------------0---0-------------| 2x
|---2--2--3---------------------|--0h2-2-3-----------------------|
|--0----------------------3-----|-0------------------------------|


Chorus:

|---------------2----3---2------|----------------2-3-2-----------|
|---3-3-t-3-3---3-t----3---3----|-----3--3--3----3-3-3-----------|
|-------a--0---2--a-------------|----------0-0--2----------------| 2x
|-------p-----0---p------0------|--------------0-----------------|
|---2-----3---------------------|---2-2--3-----------------------|
|--------------------3----------|--0-----------------------------|

I love this song.. Deeply inlove with Jesus... 
Hope you like this... GOd bLess u aLL..

EiNjheL....TonieH