Hillsongs - By Your Side Chords & Tabs

 

By Your Side Chords & Tabs

Hillsongs Chords & Tabs

Version: 2 Type: Tab 0 ratings
1 star 2 stars 3 stars 4 stars 5 stars
comments

By Your Side Tab

kng may kelangan kau jst e-mail
(yfcmidsayap_music_ministry@yahoo.com)


2nd part of intro (Lead)
|---------------------3-----------------------------|
|---------------------3-----------------------------|
|------2h3p2p0---0----0-----------------------------|
|---------------------0-----------------------------|
|---------------------2-----------------------------|
|---------------------3-----------------------------|

3rd part of intro (Lead)
|------------15-------------------------------------|
|------12-----------12---13-------------------------|
|---------------------------------------------------|
|---------------------------------------------------|
|---------------------------------------------------|
|---------------------------------------------------|

before verse1
|-----------------|
|--------8--------|
|----7-------7s0--|
|-----------------|
|-----------------|
|-----------------|
[ Tab from: http://www.guitartabs.cc/tabs/h/hillsongs/by_your_side_tab_ver_2.html ]
after 1st part of chorus
|-12s15--------------------------------------------|
|--------12---13-----------------13---12--10--8----|
|------------------9----12----12-------------------|
|--------------------------------------------------|
|--------------------------------------------------|
|--------------------------------------------------|

after 2nd part of chorus
middle intro
|--------------------------------------------------|
|-12------12---------------------------------------|
|------9-----9------------------7s12--10--9---7----|
|--------------12--10-9-10---5---------------------|
|--------------------------------------------------|
|--------------------------------------------------|

subukan nyo lang... im sure dat is the ryt tab..
first tym ko rin mag tab.. pero sa kinig ko tama 
yan kc pinakinggan kong maagi sa mp3 ko.........
for all yfc music ministry.. try nyo e2... 
hi sa yfc-midsayap music ministry... for comments
just surf at www.kutangbato-ya.tk, website of yfc
north cotabato.... Vezz, marc, hessler, jasper, chen2,
lorven, rj, dianne. music ministry of midsayap. tnx
Comments