Hillsong United - Oceans Where Feet May Fail Chords & Tabs

 

Oceans Where Feet May Fail Chords & Tabs

Hillsong United Chords & Tabs

Version: 3 Type: Tab 0 ratings
1 star 2 stars 3 stars 4 stars 5 stars
comments

Oceans Where Feet May Fail Tab

   
-----------------------------------------------------------------------------
    Oceans (Where Feet May Fail)- Hillsong United
-------------------------------------------------------------------------------
Tabbed by: Audrey Barnett
E-mail: audreyqbarnett@gmail.com

Tuning: Standard
In the key of D

Chorus

(Do this part 3 out of the 4 times)

         G              D            A

e|--------7----7/------14------14---9---9---9----9h10p9------------|
B|-----------------------------------------------------------------|
G|----7----7------14------14-----9---9---9-------------------------|
D|-----------------------------------------------------------------|
A|-----------------------------------------------------------------|
E|-----------------------------------------------------------------|

Do this the 4th time (The Bm triad isn't necessary, I just like it)

           G           A      Bm

e|-----7-----7----7-----9-----7----------------------|
B|------------------------------7--------------------|
G|-7-----7------7----9------7------------------------|
D|---------------------------------------------------|
A|---------------------------------------------------|
E|---------------------------------------------------|

2nd Chorus
[ Tab from: http://www.guitartabs.cc/tabs/h/hillsong_united/oceans_where_feet_may_fail_tab_ver_3.html ]
(Alternative for chords)

        Bm          A      D                            e|--|
B|----------------------------------------------------------|
G|---7---7---7---9----11---11---11---11---------------------|
D|-9---9---9---11---12---12---12---12-----------------------|
A|----------------------------------------------------------|
E|----------------------------------------------------------|

           A                                 G
e|----------------------------------------------------------------|
B|----------------------------------------------------------------|
G|----------------------------------------------------------------|
D|----11----11----11----11----12----12----12----12----------------|
A|-------12----12----12----12----10----10----10----10-------------|
E|----------------------------------------------------------------|

This might not be exactly what is on the record, but it all sounds good with it and can 
provide some alternatives to the exact thing. :)
************************************

| /   slide up
| \   slide down
| h   hammer-on
| p   pull-off
| ~   vibrato
| +   harmonic
| x   Mute note
| b   Bend
| pb  Pre-bend
| br  Bend release
| pbr Pre-bend release
| brb Bend release bend

************************************
Comments