Hillsong United - Higher Chords & Tabs

 

Higher Chords & Tabs

Hillsong United Chords & Tabs

Version: 1 Type: Tab 0 ratings
1 star 2 stars 3 stars 4 stars 5 stars
comments

Higher Tab

   
-------------------------------------------------------------------------------
                             Higher - Hillsong United
-------------------------------------------------------------------------------
This is just a tab I made for the intro to the acoustic version of Higher. The original 
song is played with two guitars, but I tried to put everything in one. Hope you like it!

Tabbed by: William Jun

Tuning: Standard

Verse 1

e|-3----------------3-----------------------------3--------------------------|
B|-1----------------0-----------------0h1---------1--------------------------|
G|---------0----------------0---------2-------2---------------2--------------|
D|-3---3-------3----0---0-------0---------2---------------2-------2----------|
A|------------------------------------0--------------------------------------|
E|---------------------------------------------------------------------------|

e|-3----------------3--------------------------------------------------------|
B|-1----------------0-----------------1-------0h1-1--------------------------|
G|---------0----------------0-----------------2---------------2--------------|
D|-3---3-------3----0---0-------0---------2-----------2---2-------2----------|
A|------------------------------------0--------------------------------------|
E|---------------------------------------------------------------------------|

           For    unto           us
e|-3----------------3-----------------0-----------0--------------------------|
B|-1----------------0-----------------1-----------1-----------1--------------|
G|---------0--------0-------0-----------------2------------------------------|
D|-3---3-------3--------0-------0---------2---------------2-------2----------|
A|------------------------------------0--------------------------------------|
E|---------------------------------------------------------------------------|

           A      savior         came
e|-3----------------3-----------------0--------------------------------------|
B|-1----------------0-----------------1---------------1----------------------|
G|---------0--------0-------0-----------------2---------------2--------------|
D|-3---3-------3--------0-------0---------2-------2---------------2----------|
A|------------------------------------0--------------------------------------|
E|---------------------------------------------------------------------------|

           Amazing             grace        that  takes   the     weight
e|-3----------------3-----------------0-----------0--------------------------|
B|-1----------------0-----------------1-----------1--------------------------|
G|---------0--------0-------0-----------------2---------------2--------------|
D|-3---3-------3--------0-------0---------2---------------2------------------|
A|------------------------------------0--------------------------------------|
E|---------------------------------------------------------------------------|

e|-3----------------3-----------------0-----------------------3--------------|
B|-1----------------0-----------------1-----------1-----------1--------------|
G|---------0----------------0-----------------2---2-------2------------------|
D|-3---3-------3----0---0-------0---------2-----------2-----------2----------|
A|------------------------------------0--------------------------------------|
E|---------------------------------------------------------------------------|
[ Tab from: http://www.guitartabs.cc/tabs/h/hillsong_united/higher_tab.html ]
           His  name     is      hope
e|-3----------------3-----------------0-----------0-----------0--------------|
B|-1----------------0-----------------1-----------1-----------1--------------|
G|---------0--------0-------0-----------------2------------------------------|
D|-3---3-------3--------0-------0---------2---------------2-------2----------|
A|------------------------------------0--------------------------------------|
E|---------------------------------------------------------------------------|

           For all       the     earth
e|-3----------------3-----------------0-----------------------3--------------|
B|-1----------------0-----------------1-----------1-----------1--------------|
G|---------0--------0-------0-----------------2-----------2------------------|
D|-3---3-------3--------0-------0---------2-----------2-----------2----------|
A|------------------------------------0--------------------------------------|
E|---------------------------------------------------------------------------|

           His name         now and           beyond      this    life
e|-3----------------3-----------------0-----------0-----------3--------------|
B|-1----------------0-----------------1-----------1-----------1--------------|
G|---------0--------0-------0-----------------2-----------2------------------|
D|-3---3-------3--------0-------0---------2-----------2-----------2----------|
A|------------------------------------0--------------------------------------|
E|---------------------------------------------------------------------------|

               God          with us                           and you
e|-3----------------3-----------------0-----------------------3--------------|
B|-1----------------0-----------------1-----------1-----------1--------------|
G|---------0----------------0-----------------2---2-------2------------------|
D|-3---3-------3----0---0-------0---------2-----------2-----------2----------|
A|------------------------------------0--------------------------------------|
E|---------------------------------------------------------------------------|


Pre-Chorus
F           G        Am
shall be called         Almighty God
    F       G         F
And we shall declare


Chorus 1
       G       Am      F
Your name is higher, higher
       G           C       G        Am
Jesus Christ Your name is glorious


Verse 2
F    G   Am
Now unto me,
F     G      Am
the Christ revealed
F     G      Am                  F    G   Am
For you so loved and love me still


Pre-Chorus
      F             G        Am
And you shall be called         Almighty God
    F       G         F
And we shall declare


Chorus 2
       G       Am      F
Your name is higher, higher
       G           C       G        Am       Dm
Jesus Christ Your name is glorious
       G       Am      F
Your name is greater, sweeter
            G       F       G
In all the earth, higher, higher

F   G   F   G   F   G


Pre-Chorus
Chorus 2

 F       G       F       G       F
Higher, higher, higher, higher
Comments