Hilary Duff - Where Did I Go Right Chords & Tabs

 

Where Did I Go Right Chords & Tabs

Hilary Duff Chords & Tabs

Version: 1 Type: Tab 0 ratings
1 star 2 stars 3 stars 4 stars 5 stars
comments

Where Did I Go Right Tab

   
-------------------------------------------------------------------------------
			     Where Did I Go Right - Hilary Duff
-------------------------------------------------------------------------------
Tabbed by: zElEka
Email: Caro_raquel@hotmail.com

Tuning: EADGBE

Intro

e|------------------------------|--------------------------------------------|
B|---8--------------------------|----8---------------------------------------|
G|-------11------7/5~-----------|--------11-------12~------------------------|
D|------------------------------|--------------------------------------------|
A|------------------------------|--------------------------------------------|
E|------------------------------|--------------------------------------------|

Verse
G5 - F#5 - C5 - D5
e|--0----0----0----0---------------------------------------------------------|
B|--0----0----0----0---------------------------------------------------------|
G|--0----0----5----7---------------------------------------------------------|
D|--5----4----5----7-----x2--------------------------------------------------|
A|--5----4----3----5---------------------------------------------------------|
E|--3----2----x----x---------------------------------------------------------|

[ Tab from: http://www.guitartabs.cc/tabs/h/hilary_duff/where_did_i_go_right_tab.html ]
Chorus: here, are the same chords except in the second round G5-F#5-C5-D5 and C5
again you must end the chorus in C5... just follow the song and you'll understand.
G5 - F#5 - C5 - D5             G5 - F#5 - C5 - D5 - C5
e|-0--0--0--0------------|-----0--0--0--0--0---------------------------------|
B|-0--0--0--0------------|-----0--0--0--0--0---------------------------------|
G|-0--0--5--7------------|-----0--0--5--7--5---------------------------------|
D|-5--4--5--7------------|-----5--4--5--7--5---------------------------------|
A|-5--4--3--5------------|-----5--4--3--5--3---------------------------------|
E|-3--2--x--x------------|-----3--2--x--x--x---------------------------------|

in the part that says but somehow now i do im not sure about that... but i think that this are the chords.
C5 - D5 - C5
e|-0---0---0-----------------------------------------------------------------|
B|-0---0---0-----------------------------------------------------------------|
G|-5---7---5-----------------------------------------------------------------|
D|-5---7---5-----------------------------------------------------------------|
A|-3---5---3-----------------------------------------------------------------|
E|-x---x---x-----------------------------------------------------------------|

Verse: G5 - F#5 - C5 - D5
Is the same thing...

Chorus: G5 - F#5 - C5 - D5 | G5 - F#5 - C5 - D5 - C5
The same in the chorus...

And then the same thing but longer and you must end in D5
e|--0--0--0----------0-------------------------------------------------------|
B|--0--0--0----------0-------------------------------------------------------|
G|--5--7--5----------7-------------------------------------------------------|
D|--5--7--5-----x3---7-------------------------------------------------------|
A|--3--5--3----------5-------------------------------------------------------|
E|--x--x--x----------x-------------------------------------------------------|

Chorus x2: G5 - F#5 - C5 - D5 | G5 - F#5 - C5 - D5 - C5

End: C5 - D5 - C5 - D5 - G5
End in G5...

| /  slide up
| \  slide down
| h  hammer-on
| p  pull-off
| ~  vibrato
| +  harmonic
| x  Mute note
===============================================================================
Comments