Hilary Duff - Wake Up Chords & Tabs

 

Wake Up Chords & Tabs

Hilary Duff Chords & Tabs

Version: 1 Type: Tab 0 ratings
1 star 2 stars 3 stars 4 stars 5 stars
comments

Wake Up Tab

Hey everyone! I used to just come to this site because I needed a guitar tab, and I came 
so much that I figured I might as well join and contribute some tabs, so I wouldn't 
so selfish.

This is for the electric guitar in the song 'Wake Up' by Hilary Duff, and It's for the 
so I hope you enjoy! This is my VERY First tab, sorry if its wrong, but I tried! :D ;)

Alyssa P., 15yrs , Thunder Bay!
[ Tab from: http://www.guitartabs.cc/tabs/h/hilary_duff/wake_up_tab.html ]
~~~~~~~~~~~~~~~~~~~~~~~~~~~~~~~~~~~~~~~~~~~~~~~~~~~~~~~~~~~~~~~~~~~~~
CHORUS
-----------0------------0------------0-------------0------------------|
-----------0------------0------------0-------------0------------------|
-----------1------------1------------1-------------1------------------|
-----------2------------2------------2-------------2------------------| (x2)
-----------2------0-----2------4-----2------2------2------------------|
----0------0------------0------------0-------------0------------------|

-----------0------------0---------------------------------------|
-----------0------------0---------------------------------------|
-----------1------------1---------------------------------------|
-----------2------------2---------------------------------------|
-----------2------------2---------------------------------------|
----0------0------0-----0---------------------------------------|

~~~~~~~~~~~~~~~~~~~~~~~~~~~~~~~~~~~~~~~~~~~~~~~~~~~~~~~~~~~~~~~~~~~~~~
Comments