Hiding With Girls - Take Your Eyes Off The Blade Chords & Tabs

 

Take Your Eyes Off The Blade Chords & Tabs

Hiding With Girls Chords & Tabs

Version: 1 Type: Tab 0 ratings
1 star 2 stars 3 stars 4 stars 5 stars
comments

Take Your Eyes Off The Blade Tab

   
#----------------------------------PLEASE NOTE--------------------------------#
#This file is the author's own work and represents their interpretation of the#
#song. You may only use this file for private study, scholarship, or research.#
#-----------------------------------------------------------------------------#
#-- File created with Instab - http://www.pconline.com/~smcarey/instab.html --#
#-----------------------------------------------------------------------------#

Author/Artist: Hiding With Girls
Title: Take your eyes off the blade
Album: The Torino Scale
Transcribed by: Andrew Biles

This is going to be the next Hiding With Girls single, which will introduce 'the
torino scale'.  It's a great song to listen to, and play.  In the tab I've mostly
put what the rhythm guitar is doing above the tab in chord form (if you don't kno
 what they are, look down the bottom) but sometimes the lead and rhythm can be played
on one guitar and so I've put it just on one staff.

Tuning: Db, Ab, Db, Gb, Bb, eb (both guitars)

 Intro                                                   D5
|------------------------------------------------------|-----------------------|
|------------------------------------------------------|-----------------------|
|-----3---3------3----------------3---3------3---------|-----3---3------3------|
|-1-1---1---1--1---1----------1-1---1---1--1---1---x-x-|-1-1---1---1--1---1----|
|--------------------x-2-2-4---------------------x-x-x-|--------------------x--|
|--------------------------------------------------x-x-|-----------------------|
|
|------------------------------------------------------|
|------------------------------------------------------|
|------------------------------------------------------|
|-1-1---------1-1----1--------0------------------------|
|-1-1---------1-1----0--------0------------------------|
|-1-1-------------------------0------------------------|

        F5           G5              D5                           F5
-----------------------------------|-----------(6)-----------------------------|
-----------------------------------|-------------------------------------------|
------------3---3------3-----------|-----3---3--3*---3----------------3---3----|
--------1-1---1---1--1---1---------|-1-1---1-------1---1----------1-1---1---1--|
-2-3-4---------------------x-2-2-4-|---------------------x-2-2-4---------------|
-----------------------------------|-------------------------------------------|
                                x3

 G5
----------------|
----------------|
---3------------|
-1---1----------|
-------x-2-2-4--|
----------------|

 Verse
|------6-6--6-6--6-6--6-----4-4--4-4--4-4--4-------------|
|------7-7--7-7--7-7--7-----4-4--4-4--4-4--4---------7---|
|--------------------------------------------4-------x---|
|-1-1-------------------1-1------------------4-------4---|
|-1-1-------------------1-1------------------2-----------|
|-1-1-------------------1-1------------------4-----------|
                                             ^ strum ^

 Bridge
|-6-6-6-6-6-6-6--6-6-6-6-6-6-6--4-4-4-4-4-4-4-|-4-4-4-4-4-4-4-|---------|
|-7-7-7-7-7-7-7--7-7-7-7-7-7-7--4-4-4-4-4-4-4-|-4-4-4-4-4-4-4-|-x-x-x-x-|
|---------------------------------------------|---------------|-x-x-x-x-|
|---------------------------------------------|---------------|-x-x-x-x-|
|---------------------------------------------|---------------|-x-x-x-x-|
|---------------------------------------------|---------------|-x-x-x-x-|
                                               1,2,3           4

Chorus
  D5                          F5           G5              D5
|--------------------------------------------------------|-----------(6)----------------|
|--------------------------------------------------------|------------------------------|
|-----3---3------3----------------3---3------3-----------|-----3---3--3*----3-----------|
|-1-1---1---1--1---1----------1-1---1---1--1---1---------|-1-1---1--------1---1---------|
|--------------------x-2-2-4---------------------x-2-2-4-|----------------------x-2-2-4-|
|--------------------------------------------------------|------------------------------|
                                                       x3
[ Tab from: http://www.guitartabs.cc/tabs/h/hiding_with_girls/take_your_eyes_off_the_blade_tab.html ]
 F5           G5
----------------------------|
----------------------------|
-----3---3------3-----------|
-1-1---1---1--1---1---------|
--------------------x-2-2-4-|
----------------------------|

Play Verse and Bridge, then...

Chorus 2
  D5                         F5           G5               D5
|--------------------------------------------------------|-----------(6)----------------|
|--------------------------------------------------------|------------------------------|
|-----3---3------3----------------3---3------3-----------|-----3---3--3*----3-----------|
|-1-1---1---1--1---1----------1-1---1---1--1---1---------|-1-1---1--------1---1---------|
|--------------------x-2-2-4---------------------x-2-2-4-|----------------------x-2-2-4-|
|--------------------------------------------------------|------------------------------|
                                                       x2

 F5           G5
----------------------------|
----------------------------|
-----3---3------3-----------|
-1-1---1---1--1---1---------|
--------------------x-2-2-4-|
----------------------------|
                          x2

|------------------|-----------------------------------------|
|------------------|-----------------------------------------|
|-----------6------|-----------6-------------4---------4-----|
|-4----4----6------|-4----4----6--------1----4----1----4--6--|
|-2----6----4------|-2----6----4--------1----2----1----2--6--|
|-4----6----6------|-4----6----6--------1---------1-------6--|
                 x3

|------------------------------------------------------|
|------------------------------------------------------|
|-----3---3------3----------------3---3----------------|
|-1-1---1---1--1---1----------1-1---1---1-\/\/\/\/\/\/-|
|--------------------x-2-2-4--------------\/\/\/\/\/\/-|
|------------------------------------------------------|
|                                         ^pick scrape |
|------------------------------------------------------|
|------------------------------------------------------|
|------------------------------------------------------|
|-1-1---------1-1----1--------0------------------------|
|-1-1---------1-1----0--------0------------------------|
|-1-1-------------------------0------------------------|

Chorus 3
  D5                          F5           G5              D5
|--------------------------------------------------------|-----------(6)----------------|
|--------------------------------------------------------|------------------------------|
|-----3---3------3----------------3---3------3-----------|-----3---3--3*----3-----------|
|-1-1---1---1--1---1----------1-1---1---1--1---1---------|-1-1---1--------1---1---------|
|--------------------x-2-2-4---------------------x-2-2-4-|----------------------x-2-2-4-|
|--------------------------------------------------------|------------------------------|
                                                       x3

 F5           G5
----------------------------|
----------------------------|
-----3---3------3-----------|
-1-1---1---1--1---1---------|
--------------------x-2-2-4-|
----------------------------|

Outro
|------------------|
|------------------|
|-----3---3-3*-----|
|-1-1---1------1-1-|
|--------------1-1-|
|------------------|

any questions? andrewbiles@hotmail.com
_____________
Chords

 D5    F5   G5
|---------------|
|---------------|
|---------------|
|-1----4----6---|
|-1----4----6---|
|-1----4----6---|

___________________________
Lyrics:

Dear Stranger, separate
Are lovers dreams the worst?
I write to spare you irony, and send word of a curse

Long were the lights out, seal them some way
Before the blade deploys itself and chooses who to slay

There is still time left in this vacancy
An unlived life flows freely in your veins

Dear Passion; blessed be
Take this to the grave
Years empty endlessly to crash here on the waves

Long were the lights out, seal them some way
Before the blade deploys itself and chooses who to slay

There is still time left in this vacancy
An unlived life flows freely in your veins

Take your pride out of place
Takes your nose out of joint
Take your eyes off the blade
Take the edge off the point

Reveal new life
Reveal and smile

There is still time left in this vacancy
An unlived life flows freely in your veins
Comments