Hiding With Girls - Get Your Stuff Go Home Chords & Tabs

 

Get Your Stuff Go Home Chords & Tabs

Hiding With Girls Chords & Tabs

Version: 1 Type: Tab 0 ratings
1 star 2 stars 3 stars 4 stars 5 stars
comments

Get Your Stuff Go Home Tab

Band: Hiding With Girls
Song: Get Your Stuff, Go Home
Tabbed by: Tristan Kirby (HWG)

intro has 2 parts: one guitar plays one the other plays the 2nd over the top

part one play this -		this bit needs to b played 2 times 

D|---0---0--0--0---0----|------------------------------------------------------------------|
A|---0---0--0--0---0----|------------------------------------------------------------------|
F|--12-12-12-12-12------|----12-12-12-12-----12-12-12-12------14-14-14-14------10-10-10-10-|
C|----------------------|----10-10-10-10-----10-10-10-10------12-12-12-12-------9--9--9--9-|
G|----------------------|----10-10-10-10-----10-10-10-10------12-12-12-12-------9--9--9--9-|
C|----------------------|----10-10-10-10-----10-10-10-10------12-12-12-12-------9--9--9--9-|


main riff play twice but miss the 2 opens of the last one

D|--------------------------------------------------------------------------------------------------|
A|--------------------------------------------------------------------------------------------------|
F|----12-12-12-12-------------12-12-12-12--------------14-14-14-14-------------10-10-10-10----------|
C|----10-10-10-10-------------10-10-10-10--------------12-12-12-12-------------9--9--9--9-----------|
G|----10-10-10-10-------------10-10-10-10--------------12-12-12-12-------------9--9--9--9-----------|
C|----10-10-10-10----0--0-----10-10-10-10----0--0------12-12-12-12----0--0-----9--9--9--9------0--0-|


verse play twice

D|--------------------------------------------------------------------------------------------------------|
A|-------------------------10----------------10-------------------------12------------------------------9-|
F|------------------12-----------------12---------------------------------------14---------------11-------|
C|--------------------------------------------------------------------------------------------------------|
G|--------------------------------------------------------------------------------------------------------|
C|-10-10-10-10------------10-10------------------12-12-12-12---------------------- 9-9--------------------|


pre chorus let them all ring
[ Tab from: http://www.guitartabs.cc/tabs/h/hiding_with_girls/get_your_stuff_go_home_tab.html ]
D|---0------x--x----10-----x--x-----0----x--x-----10---x--x------x----|
A|---0------x--x----10-----x--x-----0----x--x-----10---x--x------x----|
F|---12-----x--x----12----x--x-----12----x--x----12---x--x------x----|
C|---12-----x--x----12----x--x-----12----x--x----12---x--x------x----|
G|---10-----x--x----10----x--x-----10----x--x----10---x--x------x----|
C|---10------x--x---10-----x--x----10----x--x----10---x--x------x----|


chorus play 4 times

D|------------------------------------------------------------------------------------------------|
A|------------------------------------------------------------------------------------------------|
F|---14-14-14-14-14-14-14-14--------14-14-14-14-14-14-14------12-12-12-12-12-12-12-----7-7-7-7-7--|
C|---12-12-12-12-12-12-12-12--------10-10-10-10-10-10-10-------9--9--9--9--9--9--9-----5-5-5-5-5--|
G|---12-12-12-12-12-12-12-12--------10-10-10-10-10-10-10-------9--9--9--9--9--9--9-----5-5-5-5-5--|
C|---12-12-12-12-12-12-12-12--------10-10-10-10-10-10-10-------9--9--9--9--9--9--9-----5-5-5-5-5--|

that's basically the whole song I trust u all know the arrangement.



this is the middle bit intro

D|-----------------------|
A|-----------------------|
F|---------7-------7-----|
C|------5---5---5----5---|
G|---7--------7----------|
C|-----------------------|

then the riff (is it really a riff?) play this 4 times and end on the chord on the 10th,
do 2 chickas and back into the chorus

D|----------------------------------------------------------------------------------------------------------|
A|----------------------------------------------------------------------------------------------------------|
F|-12-12-12-12-12-12-12-12-----14-14-14-14-14-14-14-14---------------------------7--12-12-12-12-12-12-12-12-|
C|-10-10-10-10-10-10-10-10-----12-12-12-12-12-12-12-12------------------------5-----10-10-10-10-10-10-10-10-|
G|-10-10-10-10-10-10-10-10-----12-12-12-12-12-12-12-12---------------------7--------10-10-10-10-10-10-10-10-|
C|-10-10-10-10-10-10-10-10-----12-12-12-12-12-12-12-12---2-2-2-2---2-2--------------10-10-10-10-10-10-10-10-|

D|--------------------------------------------------------|
A|--------------------------------------------------------|
F|---14-14-14-14-14-14-14-14-------------7--------------7-|
C|---12-12-12-12-12-12-12-12----------5------5------5-----|
G|---12-12-12-12-12-12-12-12------7-------------7---------|
C|---12-12-12-12-12-12-12-12------------------------------|
Comments