Hiding With Girls - Disasters First Birthday Chords & Tabs

 

Disasters First Birthday Chords & Tabs

Hiding With Girls Chords & Tabs

Version: 1 Type: Tab 0 ratings
1 star 2 stars 3 stars 4 stars 5 stars
comments

Disasters First Birthday Tab

Author/Artist: Hiding With Girls
Title: Disaster's 1st Birthday (worked out from a pre-album demo - just incase things are missing)

This is their next single to be released and hopefully the one to introduce their debut 
release.
I've again tabbed it in STANDARD TUNING (E,A,D,G,B,e) and tabbed both the lead and the
rhythm parts.  The order of the song is pretty easy, it's mainly layed out in the correct
way, although you'll have to come back for the second verse, other than that, it's all 
to follow.
Lyrics as usual at the bottom.

 Intro (lead)
|----------------------------------------|-------------------------------------|
|----------------------------------------|-------------------------------------|
|-11----11-12--12-9----9-11--11----11----|-11-9-11-9--9-12-9-12-9--9-11-9-11---|
|----12-------------12----------12----12-|-------------------------------------|
|----------------------------------------|-------------------------------------|
|----------------------------------------|-------------------------------------|
                                      x4

----------------------------------------------|-------------------------------|
----------------------------------------------|-------------------------------|
-11-11-11-11-11-12--9-11-9-11-12--11----11-9--|-11----11-12--11-9----9-11--11-|
-------------------------------------12-------|----12-------------12----------|
----------------------------------------------|-------------------------------|
----------------------------------------------|-------------------------------|
 ^tremolo picked

----------|
----------|
----11-9--|
-12-------|
----------|
----------|
      x2

 Intro (rhythm)
|---------------------------|
|---------------------------|
|---7----7----7----7----7-7-|
|---7----7----7----7----7-7-|
|-5-5--5-5--5-5--5-5--5-5-5-|
|---------------------------|

 Verse (lead)
|-------------5---7---5-----------------------------|
|---------------3---3---3--------------7---8---10---|
|-7-7-7-7-7-7--------------7-7-7-7-7-7---7---7----7-|
|---------------------------------------------------|
|---------------------------------------------------|
|---------------------------------------------------|

 Verse (rhythm)
|------------------------------------------------------------------------------|
|------------------------------------------------------------------------------|
|-7-7-7-7-7-7-7-7-7-7-7-7-7-7-7-7-4-4-4-4-4-4-4-4-4-4-4-4-4-4-4-4--------------|
|-7-7-7-7-7-7-7-7-7-7-7-7-7-7-7-7-4-4-4-4-4-4-4-4-4-4-4-4-4-4-4-4-5-5-5-5-5-5--|
|-5-5-5-5-5-5-5-5-5-5-5-5-5-5-5-5-2-2-2-2-2-2-2-2-2-2-2-2-2-2-2-2-5-5-5-5-5-5--|
|-----------------------------------------------------------------3-3-3-3-3-3--|

-----------------------------------------------------|
-----------------------------------------------------|
-----------------------------------------------------|
-5-5-5-5-5-5-5-5-5-5-7-7-7-7-7-7-7-7-7-7-7-7-7-7-7-7-|
-5-5-5-5-5-5-5-5-5-5-7-7-7-7-7-7-7-7-7-7-7-7-7-7-7-7-|
-3-3-3-3-3-3-3-3-3-3-5-5-5-5-5-5-5-5-5-5-5-5-5-5-5-5-|

 Bridge (both)
|--------------------------------------------------------------------------|
|--------------------------------------------------------------------------|
|-4------------------4------------------4----------------------------------|
|-4---5-5--5-5--5-5--4---5-5--5-5--5-5--4---5-5--5-5--5-5--7-7-7-7-7-7-7-7-|
|-2---5-5--5-5--5-5--2---5-5--5-5--5-5--2---5-5--5-5--5-5--7-7-7-7-7-7-7-7-|
|-----3-3--3-3--3-3------3-3--3-3--3-3------3-3--3-3--3-3--5-5-5-5-5-5-5-5-|
[ Tab from: http://www.guitartabs.cc/tabs/h/hiding_with_girls/disasters_first_birthday_tab.html ]
 Chorus (lead)
|------------------------------------|----------------------|-------------|
|------------------------------------|----------------------|-------------|
|-11h12h14-----11h12h14-----11h12h14-|-11h12h14-----11----9-|-11h12h14----|
|----------12-----------12-----------|----------12-----12---|----------12-|
|------------------------------------|----------------------|-------------|
|------------------------------------|----------------------|-------------|
                                  x3

-----------------------|----------------|
-----------------------|----------------|
-11h12h14-----11h12h14-|-11h12h14-----9-|
----------12-----------|----------12----|
-----------------------|----------------|
-----------------------|----------------|
                    x3

 Chorus (rhythm)
|-------------------------------------------|
|-------------------------------------------|
|-7--7-7-7----------------------------------|
|-7--7-7-7-7--7-7-7-7-4--4-4-4-5--5-5-5-5-5-|
|-5--5-5-5-7--7-7-7-7-4--4-4-4-5--5-5-5-5-5-|
|----------5--5-5-5-5-2--2-2-2-3--3-3-3-3-3-|

 After second chorus (rhythm)
|------------------|
|------------------|
|-7-7-7-7-7-7-7-7--|
|-x-x-x-x-x-x-x-x--|
|-5-5-5-5-5-5-5-5--|
|------------------|

play intro

 Middle 8 (lead)
|-------------------------|-----------------|----------------------------------|
|-------------------------|-----------------|----------------------------------|
|-------------------------|-7h9---7h9---7h9-|-7-x-7-x-7-x-7-x-7-x-7-x-7-x-7-x--|
|-------------------------|-----------------|-x-x-x-x-x-x-x-x-x-x-x-x-x-x-x-x--|
|-------------------------|-----------------|-5-x-5-x-5-x-5-x-5-x-5-x-5-x-5-x--|
|-------------------------|-----------------|----------------------------------|
                                         x4
 Middle 8 (rhythm)
|------------------------------------------------------------------------------|
|------------------------------------------------------------------------------|
|-7------2------7------2----------------------7-x-7-x-7-x-7-x-7-x-7-x-7-x-7-x--|
|-7------2------7------2----------------------x-x-x-x-x-x-x-x-x-x-x-x-x-x-x-x--|
|-5------0------5------0----------------------5-x-5-x-5-x-5-x-5-x-5-x-5-x-5-x--|
|------------------------------------------------------------------------------|

-------------------------------------------------------------------------|
-------------------------------------------------------------------------|
-9-x-9-x-9-x-9-x-9-x-9-x-9-x-9-x-11-x-11-x-11-x-11-x-12-x-12-x-12-x-12-x-|
-x-x-x-x-x-x-x-x-x-x-x-x-x-x-x-x-x--x-x--x-x--x-x--x-x--x-x--x-x--x-x--x-|
-7-x-7-x-7-x-7-x-7-x-7-x-7-x-7-x-9--x-9--x-9--x-9--x-10-x-10-x-10-x-10-x-|
-------------------------------------------------------------------------|
 Both guitars

-----------------|
-----------------|
-----------------|
-7-7-7-7-7-7-7-7-|
-7-7-7-7-7-7-7-7-|
-5-5-5-5-5-5-5-5-|

Chorus

|-------------------------------------------------------------|
|-------------------------------------------------------------|
|-11h12h14----14----14----14----14----14----14----14----14----|
|----------12----12----12----12----12----12----12----12----12-|
|-------------------------------------------------------------|
|-------------------------------------------------------------|
 Outro lead

any questions? andrewbiles@hotmail.com
______________
Lyrics:

i broke you when i asked you to breathe
the lights went out, and you asked me to leave
come ride in here, alongside me
you'll remember the burning dream

i'm hellbound on you

oh i'll leave, first admit that it'll never sound the same without me here
think twice, admit it; i'm never gonna stand here in your way

we stand here and its all in the past
the lights dim down, and she asks him to dance
come share this space alongside me
we'll burn this day until it's real

i'm hellbound with you

oh i'll leave, first admit that it'll never be the same without me here
think twice, admit it; i'm never gonna stand here in your way

can you trust me? can you trust you?

oh i'll leave, first admit that things wont ever change without me here
think twice, admit it; i'm never gonna stand here in your way
Comments