Hidden In Plain View - Same To You Chords & Tabs

 

Same To You Chords & Tabs

Hidden In Plain View Chords & Tabs

Version: 1 Type: Tab 0 ratings
1 star 2 stars 3 stars 4 stars 5 stars
comments

Same To You Tab

   
Kristia here again..hm here's another one by them
[ Tab from: http://www.guitartabs.cc/tabs/h/hidden_in_plain_view/same_to_you_tab.html ]
Same To You - Hidden In Plain View
  
a. Intro
guitar 1 4x
e|-7-----7-----7-----7-----7----7-----|
B|---9-----9-----9-----9----9-----9---|
G|-----9-----9-----8-----8----8-----9-|
D|------------------------------------|
A|------------------------------------|
E|------------------------------------|
  
guitar 2
  
Chords E and G#m 4x
  
guitar 3 (you hear it in the background)
  
e|---------------------|---------------------|
B|-9-10-12-10-9--------|---------------------|
G|--------------9-11-9-|-11-9-8-9-11-13-11-9-|
D|---------------------|---------------------|
A|---------------------|---------------------|
E|---------------------|---------------------|
  
b. Intro 2
  
guitar 1
e|--------------------------------------------------|
B|-9-10-9---------9-10-9-----------9-10-9-----------|
G|--------11-9-11--------11-9-11-9--------11-9-11-9-|
D|--------------------------------------------------|
A|--------------------------------------------------|
E|--------------------------------------------------|
  
guitar 2
E | a |
  
c. Verse
E | a |
  
d. Pre-chorus
guitar 1
e|-4-----4----4-5-|
B|---5-----5------|
G|-----6-----6----|
D|----------------|
A|----------------|
E|----------------|
  
guitar 2
F#m | B |
  
go back to b, but melody changes
  
guitar 1 
 
e|-------------------------------------------------------------|
B|-9-10-9---------9-10-9-----------9-10-9----------------------|
G|--------11-9-11--------11-9-11-9--------11-9-11-13-11-9-11-9-|
D|-------------------------------------------------------------|
A|-------------------------------------------------------------|
E|-------------------------------------------------------------|
  
then don't do nothing for the verse until the bass does that thing 2 times
then do the verse part
  
bass line for verse
G|---------------------|
D|---------------------|
A|---4-4---0-0---------|
E|-0-----0-----4-4-2-2-|
  
then go to d
  
Chorus
  
guitar 2
  
E | a | C#m | F#m | B :||
  
guitar 1 (if you listen closely you can hear it)
e|-----------------------------|
B|-----------------------------|
G|-4---------------------------|
D|-------------4-4-6-7-6-4-4-4-|
A|---------------------------2-|
E|-----------------------------|
  
Solo
  
guitar 1
e|----------------------------------------------------------
B|-----10-9-10-----10-9-10-12-10-9-----------10-9-----------
G|-4-9---------9-9-----------------11-9-11-9------11-9-11---
D|--------------------------------------------------------9-
A|----------------------------------------------------------
E|----------------------------------------------------------
  
(cont'd)
e|-----------------------------------------------|
B|-10-9--------------------10-9-10-10-9-10-10-12-|
G|------11-9-11-11-13-11-9-----------------------|
D|-----------------------------------------------|
A|-----------------------------------------------|
E|-----------------------------------------------|


go back up and look on the right....
 
guitar 2
E | a | C# | B :||
  
E | a | C# | F# - B - Eb - E |
E | a | C# | F# | % |
  
E (strum a couple then slide up to Eb) on 5th string.
  
then...
  
guitar 1
  
E | a | C# | F# | B | F# |
  
guitar 2
  
E | 4x then Eb to E
  
then back to chorus
Comments