Hidden In Plain View - Garden Statement Chords & Tabs

 

Garden Statement Chords & Tabs

Hidden In Plain View Chords & Tabs

Version: 1 Type: Tab 0 ratings
1 star 2 stars 3 stars 4 stars 5 stars
comments

Garden Statement Tab

Band-Hidden in Plain View
Albulm-Life in the dreaming
Song-Garden Statement

This song is really easy to play, and they're an amazing band, you should see them play live.

Guitar 1-Rhythm Guitar(Rob)
Guitar 2-Lead Guitar(Mike)

                           Intro
    Guitar 1
[-----------------------------------------------------------------------------------------------------------]
[---3-3-3-3----------3-3-3-3----------3-3-3-3----------3-3-3-3----------3-3-3-3----------3-3-3-3------------]
[---4-4-4-4----------4-4-4-4----------4-4-4-4----------4-4-4-4----------4-4-4-4----------4-4-4-4------------]
[---4-4-4-4---2-2----4-4-4-4---2-2----4-4-4-4---2-2----4-4-4-4---2-2----4-4-4-4---2-2----4-4-4-4---2-2------]
[---2-2-2-2---2-2----2-2-2-2---2-2----2-2-2-2---2-2----2-2-2-2---2-2----2-2-2-2---2-2----2-2-2-2---2-2------]
[-------------0-0--------------0-0--------------0-0--------------0-0--------------0-0--------------0-0------]
{                                                                                        
                  }
{   Gutiar 2                                                                             
                  }
[-----------------------------------------------------------------------------------------------------------]
[----------------------------------------10---10----------10---10----------10---10----------10---10---------]
[-------------------------------------6h7--6h7--6h7----6h7--6h7--6h7----6h7--6h7--6h7----6h7--6h7--6h7------]
[-----------------------------------------------------------------------------------------------------------]
[-----------------------------------------------------------------------------------------------------------]
[-----------------------------------------------------------------------------------------------------------]

                            Verse
    Guitar 1
[------------------------------------------------------------------------]
[-3-33333333333333333333333333333----------------------------------------]
[-4-44444444444444444444444444444---222222222222222222222222222222222----]
[-4-44444444444444444444444444444---222222222222222222222222222222222----]
[-2-22222222222222222222222222222---000000000000000000000000000000000----]
[------------------------------------------------------------------------]
{   ..........................      ..............................       }
{   Gutiar 2                                                             }
[------------------------------------------------------------------------]
[-3-33333333333333333333333333333----------------------------------------]
[-4-44444444444444444444444444444---222222222222222222222222222222222----]
[-4-44444444444444444444444444444---222222222222222222222222222222222----]
[-2-22222222222222222222222222222---000000000000000000000000000000000----]
[------------------------------------------------------------------------]
    .........................       ..............................


    Guitar 1
[------------------------------------------------------------------------]
[-3-33333333333333333333333333333----------------------------------------]
[-4-44444444444444444444444444444---222222222222222222222222222222222----]
[-4-44444444444444444444444444444---222222222222222222222222222222222----]
[-2-22222222222222222222222222222---000000000000000000000000000000000----]
[------------------------------------------------------------------------]
{   .........................       ..................                   }
{   Gutiar 2                                                             }
[------------------------------------------------------------------------]
[-3-33333333333333333333333333333----------------------------------------]
[-4-44444444444444444444444444444---222222222222222222222222222222222----]
[-4-44444444444444444444444444444---222222222222222222222222222222222----]
[-2-22222222222222222222222222222---000000000000000000000000000000000----]
[------------------------------------------------------------------------]
    .........................       ...................

                              Pre-chorus
Guitar 1
[-------------------------------------------------------------------------]
[-------------------------------------------------------------------------]
[-4~~~-----4~~-----4~~~-----4~~~------------------------------------------]
[-x~~~-----x~~-----x~~~-----x~~~----2~~~-----2~~~-----22222222-55555555---]
[-2~~~-----2~~-----2~~~-----2~~~----2~~~-----2~~~-----22222222-55555555---]
[-----------------------------------0~~~-----0~~~-----00000000-33333333---]
{                                                                        }
{   Gutiar 2                                                             }
[-------------------------------------------------------------------------]
[-------------------------------------------------------------------------]
[-4~~~-----4~~-----4~~~-----4~~~------------------------------------------]
[-x~~~-----x~~-----x~~~-----x~~~----2~~~-----2~~~-----22222222-55555555---]
[-2~~~-----2~~-----2~~~-----2~~~----2~~~-----2~~~-----22222222-55555555---]
[-----------------------------------0~~~-----0~~~-----00000000-33333333---]

                              Chorus
Guitar 1
[----------------------------------------------------------------------]
[---3-3-3-3----------3-3-3-3----------2-2-2-2----------2-2-2-2---------]
[---4-4-4-4----------4-4-4-4----------2-2-2-2----------2-2-2-2---------]
[---4-4-4-4---2-2----4-4-4-4---2-2----2-2-2-2---2-2----2-2-2-2---2-2---]
[---2-2-2-2---2-2----2-2-2-2---2-2----0-0-0-0---2-2----0-0-0-0---2-2---]
[-------------0-0--------------0-0--------------0-0--------------0-0---]
{                                                                       
{   Gutiar 2                         (12's and 10's)                   
[----------------------------------------------------------------------]
[-------10--10----------10---10------12121010121210--12121010121210----]
[---6h7--6h7--6h7----6h7--6h7--6h7-------------------------------------]
[----------------------------------------------------------------------]
[----------------------------------------------------------------------]
[----------------------------------------------------------------------]


[-------------------------------------------------------------------]
[-3-3-3-3----------3-3-3-3------------------------------------------]
[-4-4-4-4----------4-4-4-4----------2-2-2-2----------2-2-2-2--------]
[-4-4-4-4---2-2----4-4-4-4---2-2----2-2-2-2---2-2----0-0-0-0---2-2--]
[-2-2-2-2---2-2----2-2-2-2---2-2----0-0-0-0---2-2----0-0-0-0---2-2--]
[-----------0-0--------------0-0--------------0-0--------------0-0--]
{                                                                   }
{Gutiar 2                                                           }
[-------------------------------------------------------------------]
[----10---10----------10---10-------12121010121210--12121010121210--]
[-6h7--6h7--6h7----6h7--6h7--6h7------------------------------------]
[-------------------------------------------------------------------]
[-------------------------------------------------------------------]
[-------------------------------------------------------------------]




I cant figure out what they play for the second verse :-(  sorry

repeat the pre-chorus
repeat the chorus twice

                           Bridge-Play twice
Guitar 1 ("it's like i'm falling asleep with my eyes open...")
[-xxxx---------------------------------------------------------------------------------]
[-xxxx---------------------------------------------------------------------------------]
[-xxxx---------------------------------------------------------------------------------]
[-xxxx--22222222222222222222222222222222--55555555555555555555555555555555-------------]
[-xxxx--22222222222222222222222222222222--55555555555555555555555555555555-------------]
[-xxxx--00000000000000000000000000000000--33333333333333333333333333333333-------------]
{                                                                                      }
{   Gutiar 2                                                                           }
[-xxxx---------------------------------------------------------------------------------]
[-xxxx---------------------------------------------------------------------------------]
[-xxxx---------------------------------------------------------------------------------]
[-xxxx--22222222222222222222222222222222--55555555555555555555555555555555-------------]
[-xxxx--22222222222222222222222222222222--55555555555555555555555555555555-------------]
[-xxxx--00000000000000000000000000000000--33333333333333333333333333333333-------------]
[ Tab from: http://www.guitartabs.cc/tabs/h/hidden_in_plain_view/garden_statement_tab.html ]
Guitar 1
[--------------------------------------------------------------------------------------]
[--------------------------------------------------------------------------------------]
[--------------------------------------------------------------------------------------]
[-------22222222222222222222222222222222--55555555555555555555555555555555-------------]
[-------22222222222222222222222222222222--55555555555555555555555555555555-------------]
[-------00000000000000000000000000000000--33333333333333333333333333333333-------------]
{                                                                                      }
{   Gutiar 2                                                                           }
[--------------------------------------------------------------------------------------]
[-------------------------------------------7---7---7---7---7---7---7h8888-------------]
[---------------------------------------------7---7---7---7---7---7--------------------]
[-------22222222222222222222222222222222-----------------------------------------------]
[-------22222222222222222222222222222222-----------------------------------------------]
[-------00000000000000000000000000000000-----------------------------------------------]


                          Interlude
Guitar 1
[------------------------------------------------------------------------]
[------------------------------------------------------------------------]
[------------------------------------------------------------------------]
[-------2~~~~-----------------------------5~~~~--------------------------]
[-------2~~~~-----------------------------5~~~~--------------------------]
[-------0~~~~-----------------------------3~~~~--------------------------]
{                                                                        }
{   Gutiar 2                                                             }
[------------------------------------------------------------------------]
[------------------------------------------------------------------------]
[------------------------------------------------------------------------]
[-------2~~~~-----------------------------5~~~~--------------------------]
[-------2~~~~-----------------------------5~~~~--------------------------]
[-------0~~~~-----------------------------3~~~~--------------------------]

Guitar 1
[------------------------------------------------------------------------]
[------------------------------------------------------------------------]
[------------------------------------------------------------------------]
[-------2~~~~-----------------------------5~~~~--------------------------]
[-------2~~~~-----------------------------5~~~~--------------------------]
[-------0~~~~-----------------------------3~~~~--------------------------]
{                                                                        }
{   Gutiar 2                                                             }
[------------------------------------------------------------------------]
[------------------------------------------------------------------------]
[------------------------------------------------------------------------]
[-------2~~~~-----------------------------5~~~~--------------------------]
[-------2~~~~-----------------------------5~~~~--------------------------]
[-------0~~~~-----------------------------3~~~~--------------------------]


Guitar 1-not exactly sure about this part
("Don't let me drown, so i can breath again..")
[--------------------------------------------------------------------------------]
[--------------------------------------------------------------------------------]
[--------------------------------------------------------------------------------]
[--2~~~~~~~~~~-------------------------------------------------------------------]
[--2~~~~~~~~~~-------------------------------------------------------------------]
[--0~~~~~~~~~~-------------------------------------------------------------------]
{                                                                                }
{   Gutiar 2                                                                     }
[--------------------------------------------------------------------------------]
[------3--------3--------3--------3---------3--------3--------3--------3---------]
[----0--0-0---0--0-0---0--0-0---0--0-0----0--0-0---0--0-0---0--0-0---0--0-0------]
[---0-0--0---0-0--0---0-0--0---0-0--0----0-0--0---0-0--0---0-0--0---0-0--0-------]
[--------------------------------------------------------------------------------]
[--0--------0--------0--------0---------3--------3--------3--------3-------------]

Guitar 1
[--------------------------------------------------------------------------------]
[--------------------------------------------------------------------------------]
[--------------------------------------------------------------------------------]
[--------------------------------------------------------------------------------]
[--------------------------------------------------------------------------------]
[--------------------------------------------------------------------------------]
{                                                                                }
{   Gutiar 2                                                                     }
[-------------------------------------------------------------------3~-----------]
[------3--------3--------3--------3---------3--------3--------3-----3~-----------]
[----0--0-0---0--0-0---0--0-0---0--0-0----0--0-0---0--0-0---0--0-0--0~-----------]
[---0-0--0---0-0--0---0-0--0---0-0--0----0-0--0---0-0--0---0-0--0---0~-----------]
[-------------------------------------------------------------------2~-----------]
[--0--------0--------0--------0---------3--------3--------3---------3~-----------]

  Guitar 1
[--------------------------------------------------------------------------------]
[--------------------------------------------------------------------------------]
[--------------------------------------------------------------------------------]
[--22222222222222222222222222222222222--55555555555555555555555555555555555------]
[--22222222222222222222222222222222222--55555555555555555555555555555555555------]
[--00000000000000000000000000000000000--33333333333333333333333333333333333------]
{  ...........................................................................           
 ...................................................................................... 
         }
{   Gutiar 2                                                                     }
[--------------------------------------------------------------------------------]
[------3--------3--------3--------3---------3--------3--------3--------3---------]
[----0--0-0---0--0-0---0--0-0---0--0-0----0--0-0---0--0-0---0--0-0---0--0-0------]
[---0-0--0---0-0--0---0-0--0---0-0--0----0-0--0---0-0--0---0-0--0---0-0--0-------]
[--------------------------------------------------------------------------------]
[--0--------0--------0--------0---------3--------3--------3--------3-------------]

Guitar 1
[--------------------------------------------------------------------------------]
[--------------------------------------------------------------------------------]
[--------------------------------------------------------------------------------]
[--22222222222222222222222222222222222--555555555555555555\\\\\\\\\\\\\\\\\------]
[--22222222222222222222222222222222222--555555555555555555\\\\\\\\\\\\\\\\\------]
[--00000000000000000000000000000000000--333333333333333333\\\\\\\\\\\\\\\\\------]
{  ...........................................................................           
 ...................................................................................... 
         }
{   Gutiar 2                                                                     }
[--------------------------------------------------------------------------------]
[------3--------3--------3--------3---------3--------3--------3--------3---------]
[----0--0-0---0--0-0---0--0-0---0--0-0----0--0-0---0--0-0---0--0-0---0--0-0------]
[---0-0--0---0-0--0---0-0--0---0-0--0----0-0--0---0-0--0---0-0--0---0-0--0-------]
[--------------------------------------------------------------------------------]
[--0--------0--------0--------0---------3--------3--------3--------3-------------]

 Guitar 1
[--------------------------------------------------------------------------------]
[--------------------------------------------------------------------------------]
[--------------------------------------------------------------------------------]
[--22222222222222222222222222222222222--55555555555555555555555555555555555------]
[--22222222222222222222222222222222222--55555555555555555555555555555555555------]
[--00000000000000000000000000000000000--33333333333333333333333333333333333------]
{                                                                                }
{   Gutiar 2    (listen carefully and you can hear it                             }
[--------------------------------------------------------------------------------]
[------3--------3--------3--------3---------3--------3--------3--------3---------]
[----0--0-0---0--0-0---0--0-0---0--0-0----0--0-0---0--0-0---0--0-0---0--0-0------]
[---0-0--0---0-0--0---0-0--0---0-0--0----0-0--0---0-0--0---0-0--0---0-0--0-------]
[--------------------------------------------------------------------------------]
[--0--------0--------0--------0---------3--------3--------3--------3-------------]

 Guitar 1
[--------------------------------------------------------------------------------]
[--------------------------------------------------------------------------------]
[--------------------------------------------------------------------------------]
[--22222222222222222222222222222222222--55555555555555555555555555555555555------]
[--22222222222222222222222222222222222--55555555555555555555555555555555555------]
[--00000000000000000000000000000000000--33333333333333333333333333333333333------]
{                                                                                }
{   Gutiar 2                                                                     }
[--------------------------------------------------------------------------------]
[------3--------3--------3--------3---------3--------3--------3--------3---------]
[----0--0-0---0--0-0---0--0-0---0--0-0----0--0-0---0--0-0---0--0-0---0--0-0------]
[---0-0--0---0-0--0---0-0--0---0-0--0----0-0--0---0-0--0---0-0--0---0-0--0-------]
[--------------------------------------------------------------------------------]
[--0--------0--------0--------0---------3--------3--------3--------3-------------]


Repeat the Bridge, and end on the last note.  :-)
I hope you liked it, soon i'll be getting tabs up for "Belly Full of Kerosene" i just 
to work out a few kinks.
Email me at skate4life57@aol.com if you have any questions or comments.
Thanks
-Anthony
Comments