Hidden In Plain View - An American Classic Chords & Tabs

 

An American Classic Chords & Tabs

Hidden In Plain View Chords & Tabs

Version: 1 Type: Tab 0 ratings
1 star 2 stars 3 stars 4 stars 5 stars
comments

An American Classic Tab

   
Hi, people. My name is Kristia, i'm just tabbing out a great song by hipv. go to
they're site www.hiddeninplainview.com and buy they're ep cd!! this song isn't on
it, but it's one of my fav. songs. so here it is...if anyone has any comments or
questions just email me at jerseynonsenze@aol.com
[ Tab from: http://www.guitartabs.cc/tabs/h/hidden_in_plain_view/an_american_classic_tab.html ]
Hidden in Plain View - An American Classic
you have to figure the strumming and timing yourself
Standard Tuning
Intro
E5 | G# | A :|| (E5)
E5 | G# | A | B :||
  
Verse
E5 | G# | A :||
  
e |----------------------------------|
B |----------------------------------|
G |-----9---9h11p9--11p9------9----9-|
D |---9---9--------------9-----------|
A |-------------------------6--6-7---|
E |----------------------------------|
  
Chorus
  
E5 | G# | A | B :||
  
Verse
  
e |----------------------------------|
B |----------------------------------|
G |-----9---9h11p9--11p9------9----9-|
D |---9---9--------------9-----------|
A |-------------------------6--6-7---|
E |----------------------------------|
  
Chorus
  
E5 | G# | A | B :|| 2x
  
then
  
e|-------------------------|--------|
B|--10-10-10-10-10-10-10-9-|10-9-12-|
G|-------------------------|--------|
D|-------------------------|--------|
A|-------------------------|--------|
E|-------------------------|--------|
  
Bridge
  
E5 (E5 Eb)
E5 (E5 Eb)
G# (E5 Eb)
A  (E5 Eb)
  
before the E5 and Eb you have to palm mute the other notes...
oh and watch out because sometimes it goes fast. listen to it
and you'll get it. you can figure the rest from there. 




you have to figure the strumming and timing yourself ;x
Intro
E5 | G# | A :|| (E5)
E5 | G# | A | B :||
  
Verse
E5 | G# | A :||
  
e |----------------------------------|
B |----------------------------------|
G |-----9---9h11p9--11p9------9----9-|
D |---9---9--------------9-----------|
A |-------------------------6--6-7---|
E |----------------------------------|
  
Chorus
  
E5 | G# | A | B :||
  
Verse
  
e |----------------------------------|
B |----------------------------------|
G |-----9---9h11p9--11p9------9----9-|
D |---9---9--------------9-----------|
A |-------------------------6--6-7---|
E |----------------------------------|
  
Chorus
  
E5 | G# | A | B :|| 2x
  
then
  
e|-------------------------|--------|
B|--10-10-10-10-10-10-10-9-|10-9-12-|
G|-------------------------|--------|
D|-------------------------|--------|
A|-------------------------|--------|
E|-------------------------|--------|
  
Bridge
  
E5 (E5 Eb)
E5 (E5 Eb)
G# (E5 Eb)
A  (E5 Eb)
  
before the E5 and Eb you have to palm mute the other notes...
oh and watch out because sometimes it goes fast. listen to it
and you'll get it. you can figure the rest from there.
Comments