Hidden In Plain View - 20 Below Chords & Tabs

 

20 Below Chords & Tabs

Hidden In Plain View Chords & Tabs

Version: 3 Type: Tab 0 ratings
1 star 2 stars 3 stars 4 stars 5 stars
comments

20 Below Tab

Artist:Hidden In Plain Views
Song:20 Below
Track:5
Tabber:Christiam Rolón
E-Mail:adiorock23@aol.com

This Is my second Tab.
(You have to find the struming for the hole song)

Intro\Guitar 1 x8
e---3~-5-3--|
B--3--------|
G-----------|
D-----------|
A-----------|
E-----------|

Guitar 3 (0:10)
e----3-3-3-3-3--|
B--3~-3-3-3-3-3-|
G---------------|
D---------------|
A---------------|
E---------------|

(0:20)
e--3-3---3-3---3-3---3--3--|
B--3--3--3--3--3--3--2--3--|
G--0---0-0---0-0---0-3--0--|
D--2-----2-----0--------2--|
A--2-----3-----2--------3--|
E--0-----------3-----------|

Intro\Acustic Guitar x2
e--3--3--3--2--3--|
B--3--3--3--3--3--|
G--0--0--0--2--0--|
D--2--2--0-----2--|
A--2--3--2-----3--|
E--0-----3--------|

Distorted Intro
e--3--3--|
B--3--3--|
G--0--0--|
D--2--2--|
A--2--3--|
E--0-----|
[ Tab from: http://www.guitartabs.cc/tabs/h/hidden_in_plain_view/20_below_tab_ver_3.html ]
Verse\Chorus\Electric Guitar x2
e-----------------|
B-----------------|
G-----5-----7--5--|
D--2--5--5--7--5--|
A--2--3--5--5--3--|
E--0-----3--------|
   .  .  .  .  .

Chorus

Post Chorus
e-----|
B-----|
G-----|
D--2--|Then
A--2--|pick
E--0--|scrape

Bridge x2
e-----------------|
B-----------------|
G--------7--5--7--|
D--2--5--7--5--7--|
A--2--5--5--3--5--|
E--0--3-----------|
   .  .  .  .  .

Then Bridge again not mute guitar x2
Bridge again tempo increse x2
Post Chorus x4

Ending
e--3--3--3--2--3-------------3--|
B--3--3--3--3--3------------3---|
G--0--0--0--3--0----------0-----|
D--2--2--0-----2--------2-------|
A--2--3--2-----3-3-2-0-2--------|
E--0-----3------------0---------|

Another Puertorrican Tab.Remenber you have to listeng the song to find the struming its
easy.I play this song forgeting that guirar 1 and 3 exist I just play the acustic guitar
and the things that follow it.Any questions     E-mail me at adiorock23@aol.com Thank You.
Comments