Hidalgo Arnee - True Chords & Tabs

 

True Chords & Tabs

Hidalgo Arnee Chords & Tabs

Version: 1 Type: Tab 0 ratings
1 star 2 stars 3 stars 4 stars 5 stars
comments

True Tab

   
TRUE
Arnee Hidalgo

johnsantos_17@yahoo.com

Standard tuning: (EADGBE)
capo on 2nd fret

Intro:

E----4--2--4-	    --2----
B-2--5--2--5-	    --3--0-
G-2--4--2--4-	    --2--0-
D-2--6--0--6-play 2x--4--0-
A-0--4-----4-	    --2--2-
E------------	    -----3-

Verse:
[ Tab from: http://www.guitartabs.cc/tabs/h/hidalgo_arnee/true_tab.html ]
E----4--2--1--|----4--2----2-0---2--|------------
B-2--5--3--1--|-2--5--3--2-------2--|--2--5-------
G-2--4--2--2--|-2--4--2--------2-2--|--2--4------
D-2--6--0--3--|-2--6--0--------0-0--|--2--2-------
A-0--4-----3--|-0--4----------------|--0--------
E----------1--|----------2----------|-----4-------

Pre-chorus:

E-2------2------|-2--------2-------
B-3--2---3--2-2-|-3--2-2---3--2--0-
G-2--2---2--2-2-|-2--2-2---2--2--0-
D-0--2---0--2-2-|-0--2-2---0--2--0--
A----0------4-0-|----4-0------4--2-
E---------------|----------------3-

Chorus:

E----4--2--4-	    --2----
B-2--5--2--5-	    --3--0-
G-2--4--2--4-	    --2--0-
D-2--6--0--6-play 2x--4--0-
A-0--4-----4-	    --2--2-
E------------	    -----3-

Adlib:

F - C7(9)sus - F  3x
F - C7(9)sus - A

Repeat 2nd pre-chorus

=====()w&_17=====
Comments