Hi-standard - Sunshine Baby Chords & Tabs

 

Sunshine Baby Chords & Tabs

Hi-standard Chords & Tabs

Version: 1 Type: Bass Tab 0 ratings
1 star 2 stars 3 stars 4 stars 5 stars
comments

Sunshine Baby Bass Tab

   
-----------------------------------------------------------------------------
               SUNSHINE BABY  HI-STANDARD      
-----------------------------------------------------------------------------

blythe@pathcom.com              > MEANS STRUM

INTRO OVER GUITAR        INTRO
G]----7-6-7\9-]   [---------------------]
D]-\7---------]   [---------------2-4-6-]
A]------------]   [---------2-2---------]
E]------------]   [-5-5-2-2-----0-------]
[ Tab from: http://www.guitartabs.cc/tabs/h/hi_standard/sunshine_baby_btab.html ]
VERSE                                                      FIRST END
G]-------------------------------------------------------|-----------------]
D]-------------------------------------------------------|-----------------]
A]---------2-2---------------2-2-------4-4-----2-2--5-5-5|---------2-2-----]
E]-5-5-2-2-----0-0-0-5-5-2-2-----0-0-0-----2-2-----------|-5-5-2-2---0-0-0-]

                                                           SECOND END
                                                         G]-----------]
                                                         D]-----------]
                                                         A]-----------]
                                                         E]-5-5-0-0-5-]
CHORUS
G]----------------------]
D]----------------------]
A]-5>-7>-------5>-7>----]
E]-------5>-2>-------5>-]

INTRO
VERSE
CHORUS
SOLO JUST PLAY VERSE
CHORUS
INTRO



Comments