Hi-standard - Pink Panther Chords & Tabs

 

Pink Panther Chords & Tabs

Hi-standard Chords & Tabs

Version: 1 Type: Bass Tab 0 ratings
1 star 2 stars 3 stars 4 stars 5 stars
comments

Pink Panther Bass Tab

   
-----------------------------------------------------------------------
                     PINK PANTHER - HI-STANDARD
-----------------------------------------------------------------------

INTRO
G]--------------]
D]-6-7-8-9------]
A]-4-5-6-7--7---]
E]------------0-]
[ Tab from: http://www.guitartabs.cc/tabs/h/hi_standard/pink_panther_btab.html ]
PART A
G]---------------------5-4-------------------]
D]---------4-5-----4-5-------5-9-8---5-------]
A]-4-5-6-7-----6-7---------7-----------7-5-7-]
E]-------------------------------------------]

PART B
G]---------------------5-4-----7-5-]
D]---------4-5-----4-5-------5-----]
A]-4-5-6-7-----6-7---------7-------]
E]---------------------------------]

REPEAT PART A

ENDING
G]---------9-7----------------------------------]
D]--------------9-7-5-7-8-7-8-7-8-7-5-----------]
A]-4-5-6-7----------------------------7-5-7-----]
E]------------------------------------------7-0-]

REPEAT ALL JUST AT SUPER SPEED



Comments