Hi-standard - My First Kiss Chords & Tabs

 

My First Kiss Chords & Tabs

Hi-standard Chords & Tabs

Version: 1 Type: Tab 0 ratings
1 star 2 stars 3 stars 4 stars 5 stars
comments

My First Kiss Tab

   
Song: My first Kiss
Artist: Hi-Standard
Tuning: EADGBe
tabbed by: giulio cecco

-INTRO chord: PALM MUTED
e|------------------------------------------------|
B|------------------------------------------------|
G|----2-2-2-2-2-2-2-2-2-2-2-2-2-2-2-2-------------|
D|----2-2-2-2-2-2-2-2-2-2-2-2-2-2-2-2-------------|
A|----0-0-0-0-0-0-0-0-0-0-0-0-0-0-0-0-------------|
E|------------------------------------------------|

-COOL GUITAR PART:
e|---------------------------------------|
B|---2--0-----0------------0--2--0-------|
G|---------2-----2-----------------------|
D|------------------2--4-----------------|
A|---------------------------------------|
E|---------------------------------------|

e|------------------------------------|
B|---2--0-----0-------------0--2--0---|
G|---------2-----2--------------------|
D|-------------------2--4-------------|
A|------------------------------------|
E|------------------------------------|



then:
e|--------------------------------------|
B|--2--0------0--------------0--2--3----|
G|---------2------2---------------------|
D|--------------------2--4--------------|
A|--------------------------------------|
E|--------------------------------------|

e|------------------------------------|
B|---2--0-----0-------------0--2--0---|
G|---------2-----2--------------------|
D|-------------------2--4-------------|
A|------------------------------------|
E|------------------------------------|

and then:
e|------------------|
B|------------------|
G|------2-----------|
D|------2-----------|   let ring
A|------0-----------|
E|------------------|


[ Tab from: http://www.guitartabs.cc/tabs/h/hi_standard/my_first_kiss_tab.html ]
-VERSE   
                      D
Can't get no sleep tonight.
E                    A     D A D    A
It's all because of you.
A                       D 
Even though I was with you,
E                     A
and we just said goodnight.


                   C#      F#
Cheeks are burning red for you.
                  C#       F#
Heart is beating fast for you.


-PRE CHORUS
e|--------------------------|
B|--------------------------|
G|--------------------------|
D|--------------------------|   two times
A|-----2--2---4---6---------|
E|--------------------------|

At last, at last
F#         E 
Ohhh,  Ohhh..


-CHORUS:
                     A   
It is my first kiss chu.
           C#
Kiss with you.
        F#              E
I will give you all my love.
        D                C#
Why is it I feel this sweet and tender?
B                  E
Oh...I don't know why.

                      A
It is my first kiss chu.
           C#
Kiss with you.
        F#              E
I will give you all my love.
       D                        C#
Yes I know it's strange for a man to cry.
B                              E
Can't hold back be in love with you.


-COOL GUITAR PART


-VERSE 2
A                   D
And when we meet again,
E                   A     D A D    A
I know just where we'll go.
A                  D
All my dreams of tomorrow,
E                           A
Can't help but to grow and grow.


                C#       F#
All this love I give to you,
           C#      F#
Give eternally to you,


-PRE CHORUS

-CHORUS   (two times)

-COOL GUITAR PART  

-chords  A  -  D  -  E  (4 times)

-end on  A




Great easy song from Japanese punk-rock stars!!
PUNK ROCK RULES!!!
E-mail me (if you want) at: giuliocecco@yahoo.it
Comments