Hi-standard - Fighting Fists Angry Soul Chords & Tabs

 

Fighting Fists Angry Soul Chords & Tabs

Hi-standard Chords & Tabs

Version: 1 Type: Tab 0 ratings
1 star 2 stars 3 stars 4 stars 5 stars
comments

Fighting Fists Angry Soul Tab

   
-------------------------------------------------------------------------------
			     Fighting Fists, Angry Soul - Hi-Standard
-------------------------------------------------------------------------------

Tabbed by:Ricardo Cricco
Email:rcricco@hotmail.com

Tuning:EADGBE

Intro
e|---------------------------|
B|---------------------------|
G|---------------------7--9--|
D|-7--7-7--7-7-7--7-7--7--9--|
A|-7--7-7--7-7-7--7-7--5--7--|
E|-5--5-5--5-5-5--5-5--------|
       Play 4 times

Verse
e|------------------------|----------------------|---------------|
B|------------------------|----------------------|---------------|
G|-------7777--9999-------|-------7777--9999-----|-----7--9-9----|
D|-7777--7777--9999--7777-|-7777--7777--9999--7--|-7-7-7--9-9-7--|
A|-7777--5555--7777--7777-|-7777--5555--7777--7--|-7-7-5--7-7-7--|
E|-5555--------------5555-|-5555--------------5--|-5-5--------5--|
                                                       Repeat
   ---------------------P.M-----------------
                 
                    Riff A
e|-------------------------------------------|
B|-------------------------------------------|
G|-------------------------------------------|
D|--------------------4-7---------6-9--------|
A|--------4-7--5--5-5------7--7-7-----7-6-7--|
E|-5--5-5-----------------------------5-4-5--|
   
   ---------------P.M----------------
Chorus
e|------------------|-------------------------------------------------|
B|------------------|-------------------------------------------------|
G|-7-7-----9-9------|-7-----------------------9-----------------------|
D|-7-7-7-7-9-9-7-7--|-7-----------7-----------9-----------7-----------|
A|-5-5-7-7-7-7-7-7--|-5-5-5-5-5-5-7-----------7-7-7-7-7-7-7-----------|
E|-----5-5-----5-5--|-------------5-5-5-5-5-5-------------5-5-5-5-5-5-|
       Repeat
                        ---P.M---   ---P.M---   ---P.M---   ---P.M---

e|-------------------------------------|----------------------------------|
B|-------------------------------------|----------------------------------|
G|-7-----------------------9-----------|----------------------------------|
D|-7-----------7-----------9-----------|----------------------------------|
A|-5-5-5-5-5-5-7-----------7-7-7-7-7-7-|-7-6-5---7-6-5---7-6-5---7-6-5----|
E|-------------5-5-5-5-5-5-------------|-5-4-3-0-5-4-3-0-5-4-3-0-5-4-3-0--|

     ---P.M---   ---P.M---   ---P.M---

Verse
e|------------------------|----------------------|---------------|
B|------------------------|----------------------|---------------|
G|-------7777--9999-------|-------7777--9999-----|-----7--9-9----|
D|-7777--7777--9999--7777-|-7777--7777--9999--7--|-7-7-7--9-9-7--|
A|-7777--5555--7777--7777-|-7777--5555--7777--7--|-7-7-5--7-7-7--|
E|-5555--------------5555-|-5555--------------5--|-5-5--------5--|
                                                       Repeat
   ---------------------P.M-----------------
                 
                    Riff A
e|-------------------------------------------|
B|-------------------------------------------|
G|-------------------------------------------|
D|--------------------4-7---------6-9--------|
A|--------4-7--5--5-5------7--7-7-----7-6-7--|
E|-5--5-5-----------------------------5-4-5--|

   ---------------P.M----------------   

Chorus
e|------------------|-------------------------------------------------|
B|------------------|-------------------------------------------------|
G|-7-7-----9-9------|-7-----------------------9-----------------------|
D|-7-7-7-7-9-9-7-7--|-7-----------7-----------9-----------7-----------|
A|-5-5-7-7-7-7-7-7--|-5-5-5-5-5-5-7-----------7-7-7-7-7-7-7-----------|
E|-----5-5-----5-5--|-------------5-5-5-5-5-5-------------5-5-5-5-5-5-|
       Repeat
                        ---P.M---   ---P.M---   ---P.M---   ---P.M---
[ Tab from: http://www.guitartabs.cc/tabs/h/hi_standard/fighting_fists_angry_soul_tab.html ]
e|--------------------------------------|---------------------------|
B|--------------------------------------|---------------------------|
G|-7-----------------------9------------|---------------------7--9--|
D|-7-----------7-----------9------------|-7--7-7--7-7-7--7-7--7--9--|
A|-5-5-5-5-5-5-7-----------7-7-7-7-7-7--|-7--7-7--7-7-7--7-7--5--7--|
E|-------------5-5-5-5-5-5--------------|-5--5-5--5-5-5--5-5--------|
                                                 Play 4 times
     ---P.M---   ---P.M---   ---P.M---
Solo
e|---------------------------------12----|---------------------------------|
B|-10-9-7-------10-----9-10-9-10------10-|-10-9-7-------10-----9-10-9-10\--|
G|--------9-7-9----9-9-----------9-------|--------9-7-9----9-9-------------|
D|---------------------------------------|---------------------------------|
A|---------------------------------------|---------------------------------|
E|---------------------------------------|---------------------------------|

e|----------------------------|--------------------------10-9--|
B|-10-9-7----------9-10-9-10--|-10-9-7-------10-----9-10-------|
G|--------9-7----9------------|--------9-7-9----9-9------------|
D|----------------------------|--------------------------------|
A|----------------------------|--------------------------------|
E|----------------------------|--------------------------------|

e|-----------------------------------------------|------------------------------
B|-----------------------------------------------|-11-9---------------9-11-9----
G|-12-10----------------10-12-10-----------------|------12-10-8-10-12--------12-
D|-------13-12-10-12-13----------13-12-10-12-13--|------------------------------
A|-----------------------------------------------|------------------------------
E|-----------------------------------------------|------------------------------

e|-------------|-----------------------------------------------|----------------
B|-10-8-10-12--|-12-10----------------10-12-10-----------------|-11-9-----------
G|-------------|-------13-12-10-12-13----------13-12-10-12-13--|------12-10-8-10
D|-------------|-----------------------------------------------|----------------
A|-------------|-----------------------------------------------|----------------
E|-------------|-----------------------------------------------|----------------

e|----------------------|
B|----9-11-9------------|
G|-12--------12-10-8~~--|
D|----------------------|
A|----------------------|
E|----------------------|

Riff A X 2

e|------------------|-------------------------------------------------|
B|------------------|-------------------------------------------------|
G|-7-7-----9-9------|-7-----------------------9-----------------------|
D|-7-7-7-7-9-9-7-7--|-7-----------7-----------9-----------7-----------|
A|-5-5-7-7-7-7-7-7--|-5-5-5-5-5-5-7-----------7-7-7-7-7-7-7-----------|
E|-----5-5-----5-5--|-------------5-5-5-5-5-5-------------5-5-5-5-5-5-|
       Repeat                             Repeat
                        ---P.M---   ---P.M---   ---P.M---   ---P.M---
                                        
Silence

e|------------------|-------------------|--------------|
B|------------------|-------------------|--------------|
G|-7-7-----9-9------|-7---------9-------|-7---------9--|
D|-7-7-7-7-9-9-7-7--|-7----7----9----7--|-7----7----9--|
A|-5-5-7-7-7-7-7-7--|-5----7----7----7--|-5----7----7--|
E|-----5-5-----5-5--|------5---------5--|------5-------|
       Repeat

e|---------------------------|
B|---------------------------|
G|---------------------7--9--|
D|-7--7-7--7-7-7--7-7--7--9--|
A|-7--7-7--7-7-7--7-7--5--7--|
E|-5--5-5--5-5-5--5-5--------|

| /  slide up
| \  slide down
| h  hammer-on
| p  pull-off
| ~  vibrato
| +  harmonic
| x  Mute note

That's it for another great Hi-Standard song. !,,!_
===============================================================================
Comments