Hi-standard - Fighting First Angry Soul Chords & Tabs

 

Fighting First Angry Soul Chords & Tabs

Hi-standard Chords & Tabs

Version: 1 Type: Bass Tab 0 ratings
1 star 2 stars 3 stars 4 stars 5 stars
comments

Fighting First Angry Soul Bass Tab

   
-----------------------------------------------------------------------
             FIGHTING FIST ANGRY SOUL    HI-STANDARD  
-----------------------------------------------------------------------
> MEANS STRUM

INTROx4
G]-------------------]
D]-------------------]
A]---------------5-7-]
E]-5-5-5-5-5-5-5-----]

VERSE
G]---------------------]
D]----------7>-7>------]
A]----5>-7>-------5>-7>]
E]-5>------------------]

PART A
G]-------------]
D]-------------]
A]----5>-7>----]
E]-5>-------5>-]

BRIDGE
G]-------------]
D]-------------]
A]---5-7-------]
E]-5-----5-4-5-]
[ Tab from: http://www.guitartabs.cc/tabs/h/hi_standard/fighting_first_angry_soul_btab.html ]
CHORUS
G]------------------------------------------------]
D]----------------------------7>----7>----7>---7>-]
A]-5>----7>----5>----7>----5>----7>----5>----7>---]
E]----5>----5>----5>----5>------------------------]

LAST LINE OF CHORUS
G]---------------------------------]
D]---------------------------------]
A]---------------------------------]
E]-5-4-2-0-5-4-2-0-5-4-2-0-5-4-2-0-]

VERSE
PART A
BRIDGE
CHORUS 
INTRO
PLAY VERSE THEN PART A AND THIS OVER SOLO
G]-------------------------]
D]-6>----6>----9>----9>----]
A]----4>----4>----7>----7>-]
E]-------------------------]

CHORUS
INTRO



Comments