Hi Standard - California Dreaming Chords & Tabs

 

California Dreaming Chords & Tabs

Hi Standard Chords & Tabs

Version: 1 Type: Bass Tab 0 ratings
1 star 2 stars 3 stars 4 stars 5 stars
comments

California Dreaming Bass Tab

-----------------------------------------------------------------------
                    CALIFORNIA DREAMING   HI STANDARD
-----------------------------------------------------------------------

>Means Strum

INTRO VERSE
G]-------------------------------------------]
D]-------------------------------------------]
A]-/8-7-5-1----5>-3>-1>-3>----5>-3>-1>-3>----]
E]----------5>-------------5>-------------5>-]

VERSEx2
G]-------------------------------------------------------------]
D]-------------------------------------------------------------]
A]-5>-3>-1>-3>----8>-7>-5>-1>----5>-3>-1>-3>----5>-3>-1>-3>----]
E]-------------5>-------------5>-------------5>-------------5>-]
[ Tab from: http://www.guitartabs.cc/tabs/h/hi_standard/california_dreaming_btab.html ]
BRIDGE                                (going into solo)
G]------------------------------------------]
D]------------------------------------------]
A]-8>-7-8-10-8-7-3>-4>-5>---------2-3-(5-5)-]
E]------------------------6>-5>-5-----------]

SOLO
G]------------------------------------------------------------------------]
D]-----------------------------/7-5-5-5-5/7/5/4------------------------7>-]
A]-(5-5)---------2-3-4-5-5-5-5/-----------------5-(can't hear anymore)----]
E]-------5-3-3-5----------------------------------------------------------]

BRIDGE INTO VERSE
G]------------------]
D]------------3-----]
A]------2-3-5---5-3-]
E]-5>-5-------------]

VERSE

OUTRO
G]-------------]
D]-------------]
A]-5>-3>-1>-3>-]
E]-------------]


Comments