Hey Mercedes - Unorchestrated Chords & Tabs

 

Unorchestrated Chords & Tabs

Hey Mercedes Chords & Tabs

Version: 1 Type: Bass Tab 0 ratings
1 star 2 stars 3 stars 4 stars 5 stars
comments

Unorchestrated Bass Tab

   
Instrument: 4 String Bass 
Standard (E A D G)

I am not a 100% sure. I am confident in the verse though, enjoy.

Intro/Verse:
G|---------------------------------||
D|---------------------------------||
A|-0-0-0-5-5-5-4-4-4-2-2-2---------||
E|-------------------------2~--0-3~||
[ Tab from: http://www.guitartabs.cc/tabs/h/hey_mercedes/unorchestrated_btab.html ]
Chorus:
G|------------------||
D|------------------||
A|----------------1~||
E|-4-4-4---3-3------||

Bridge:
G|----------------------------||
D|----------------------------||
A|-5-5-5-4-4-4--2-2-2-2-2-2-2-||
E|----------------------------||

Order:
Intro: 2x
Verse: 4x
Chorus: 3x
Verse: 6x
Chorus: 3x
Bridge: 5 3/4
Verse: Till End
Comments