Hey Mercedes - Eleven To Your Seven Chords & Tabs

 

Eleven To Your Seven Chords & Tabs

Hey Mercedes Chords & Tabs

Version: 1 Type: Tab 0 ratings
1 star 2 stars 3 stars 4 stars 5 stars
comments

Eleven To Your Seven Tab

Band out of Wisconsin former members of Braid. Good alternative rock.


Hey Mercedes - Eleven To Your Seven

Tune B down to A, this tab only contains the 2 guitars in the
intro

Intro - Guitar 1

e--/5-5--4-4--5-5--4-4--5/4-5/4----------------------------------|
B--/0-0--0-0--0-0--0-0--0-0-0-0----------------------------------|
G----------------------------------------------------------------|
D----------------------------------------------------------------|
A----------------------------------------------------------------|
E----------------------------------------------------------------|
Repeat, then play over the below


Intro - Guitar 2

e----------------------------------------------------------------|
B----------------------------------------------------------------|
G---2--2--2--2--2--2--2--2--2------------------------------------|
D---2--2--2--2--2--2--2--2--2------------------------------------|
A---0--0--0--0--0--0--4--4--4------------------------------------|
E------------4--4--4---------------------------------------------|
Repeat 3 times, then

e----------------------------------------------------------------|
B----------------------------------------------------------------|
G----------------------------------------------------------------|
D----------------------------------------------------------------|
A----4--4--4--4--4--4--4p0---------------------------------------|
E----2--2--2--2--2--2--2p0---------------------------------------|

Verse
e----------------------------------------------------------------|
B----------------------------------------------------------------|
G----------------------------------------------------------------|
D------7---------------------------------------------------------|
A------5---------------------------------------------------------|
E----------------------------------------------------------------|
this chord for all of the verses, then

e----------------------------------------------------------------|
B----------------------------------------------------------------|
G----------------------------------------------------------------|
D---2------------------------------------------------------------|
A------4--0--4---------------------------------------------------|
E------------2---------------------------------------------------|
the end of each verse play

Chorus - same as intro
e-----------------------------------------------------------------|
B-----------------------------------------------------------------|
G---2--2--2--2--2--2--2--2--2-------------------------------------|
D---2--2--2--2--2--2--2--2--2--(X3 then)--------------------------|
A---0--0--0--0--0--0--4--4--4-------------4--4--4--4--4--4--4-----|(p0)
E------------4--4--4----------------------2--2--2--2--2--2--2-----|(p0)
                                             (on the second time)
[ Tab from: http://www.guitartabs.cc/tabs/h/hey_mercedes/eleven_to_your_seven_tab.html ]
Last verse
e----------------------------------------------------------------|
B----------------------------------------------------------------|
G----------------------------------------------------------------|
D---4--4--4--4--4--4--4--4--6--7--7--7--7--7--7--7--7------------|
A---2--2--2--2--2--2--2--2--4--5--5--5--5--5--5--5--5------------|
E----------------------------------------------------------------|
1st part "So we finished the night" repeat above for "And we laud
the long ride...", then

2nd part
e----------------------------------------------------------------|
B----------------------------------------------------------------|
G----------------------------------------------------------------|
D---4--4--4--4--4--4--4--4--6--7--7--7--7--7--7--7--7------------|
A---2--2--2--2--2--2--2--2--4--5--5--5--5--5--5--5--5------------|
E----------------------------------------------------------------|
   (xxxxxxxxxxPMxxxxxxxxxx)					then


3rd final part of verse
e----------------------------------------------------------------|
B----------------------------------------------------------------|
G----------------------------------------------------------------|
D---4--4--4--4--4--4--4--4--6------------------------------------|
A---2--2--2--2--2--2--2--2--4--7---------------------------------|
E------------------------------5---------------------------------|
   (xxxxxxxxxxPMxxxxxxxxxx)		then

Final chorus
e----------------------------------------------------------------|
B----------------------------------------------------------------|
G---2--2--2--2--2--2--2--2--2------------------------------------|
D---2--2--2--2--2--2--2--2--2------------------------------------|
A---0--0--0--0--0--0--4--4--4------------------------------------|
E------------4--4--4---------------------------------------------|
Play 4 times, then

e-----------------------------------------------------------------|
B-----------------------------------------------------------------|
G---2--2--2--2--2--2--2--2--2-------------------------------------|
D---2--2--2--2--2--2--2--2--2--(X3, then)-------------------------|
A---0--0--0--0--0--0--4--4--4-------------4--4--4--4--4--4--4-----|(p0)
E------------4--4--4----------------------2--2--2--2--2--2--2-----|(p0)
And then finally....                             (on second time)

Final chorus
e-----------------------------------------------------------------|
B-----------------------------------------------------------------|
G---2--2--2--2--2--2--2x--2x--2x----------------------------------|
D---2--2--2--2--2--2--2x--2x--2x--(X3 then)-----------------------|
A---0--0--0--0--0--0--4x--4x--4x------------4--4--4--4--4--4--4p0-|
E------------4--4--4------------------------2--2--2--2--2--2--2p0-|
Mute after each note with an x, then

Play the whole of the final chorus twice and then finish on

e----------------------------------------------------------------|
B----------------------------------------------------------------|
G---2------------------------------------------------------------|
D---2------------------------------------------------------------|
A---0------------------------------------------------------------|
E---0------------------------------------------------------------|
Let ring...
Comments