Heroes Del Silencio - Opio Chords & Tabs

 

Opio Chords & Tabs

Heroes Del Silencio Chords & Tabs

Version: 2 Type: Tab 0 ratings
1 star 2 stars 3 stars 4 stars 5 stars
comments

Opio Tab

Tabed out by   Freddy "Matador" Aguirre

This is one of My favorite intros from spanish rock, from my favorite
Spanish Rock Band:

Intro:

E--------------------------------------------------------5----|
B------------------------------------------6-6h5p6-3-------3--|
G-------3-3/7-7-5/7\5-3-5-7-7(b)-----2/7-7-----------5h7------|
D-----5----------------------------5--------------------------|
A-3/5----------------------------5----------------------------|
E-------------------------------------------------------------|

E-----------------------------------------------------5-3-2---|
B--------------------------6--4-3h4p3p1-3h4p3p1---3-3---------|
G-------3-3/7~~~-5~~~~-3h5------------------------2-2---------|
D-----5-------------------------------------------------------|
A-3/5---------------------------------------------------------|
E-------------------------------------------------------------|
[ Tab from: http://www.guitartabs.cc/tabs/h/heroes_del_silencio/opio_tab_ver_2.html ]
E--------------------------------------------------------5----|
B------------------------------------------6-6h5p6-3-------3--|
G-------3-3/7-7-5/7\5-3-5-7-7(b)-----2/7-7-----------5h7------|
D-----5----------------------------5--------------------------|
A-3/5----------------------------5----------------------------|
E-------------------------------------------------------------|

E----------------------------------------------------5-3-2----|
B-----------------------------4-3-1-------------------3-------|
G-------3-3/7~~~-5~~~~-5-3-5--------3-2-0--------2-2----------|
D-----5-----------------------------------3-1-0--0-0----------|
A-3/5---------------------------------------------------------|
E-------------------------------------------------------------|

Verses:

E--------------------------------------------------------------|
B--------------------------------------------------------------|
G---------------------------------------7(b)-------------------|
D-----------------------7--7-7--7--5/7--7(b)-7-7-5/10-10-10-10-|
A--5--5-5--5--1/5--8/5--5--5-5--5--3/5-------5-5-3/8--8--8--8--|
E--3--3-3--3--3/3--6/3-----------------------------------------|

E-------------------------------------------------------------|
B-------------------------------------------------------------|
G-------------------------------------------------------------|
D-10-10-10-10-10/7-7-7-7-7-7-7-7-7----------------------------|
A-8--8--8--8--8-/5-5-5-5-5-5-5-5-5----------------------------|
E-------------------------------------------------------------|


If you have any questions or coments feel free to E-mail me at,
             el_matador_20@yahoo.com
Comments