Hermetica - Tu Eres Su Seguridad Chords & Tabs

 

Tu Eres Su Seguridad Chords & Tabs

Hermetica Chords & Tabs

Version: 1 Type: Bass Tab 0 ratings
1 star 2 stars 3 stars 4 stars 5 stars
comments

Tu Eres Su Seguridad Bass Tab

Intro:
G|-----------4---------------4-----5-------4---------------7-----|
D|-----5-4-5---5-4-----5-4-5---5-4---5-4-5---5-4-----5-4-5---5-4-|
A|---------------------------------------------------------------|
E|---------------------------------------------------------------|

G|-------------------4------------7-----|
D|-2-----0---5-4-3-----7----5-4-5---5-4-|
A|-----3--------------------------------| <- x2
E|--------------------------------------|

'Ajeno al tiempo...'
G|-------------------------------------------------------|
D|-2-2-2-2-2-2-2---------------------------------5-4-5-4-|
A|---------------3---3-3-3-3-3-3-5---5-5-5-5-5-5---------|
E|-------------------------------------------------------|

'Pero mil voces te ahogan...'
G|-------------------------------------------------------|
D|-2-2-2-2-2-2-2---------------------------------2-0-2-5-|
A|---------------3---3-3-3-3-3-3-5---5-5-5-5-5-5---------|
E|-------------------------------------------------------|

'Por eso te vi escapando...'
G|-------------------------------------------------------|
D|-2-2-2-2-2-2-2---------------------------------5-4-5-4-|
A|---------------3---3-3-3-3-3-3-5---5-5-5-5-5-5---------|
E|-------------------------------------------------------|

'De las miradas oscuras...'
G|-----------------------------------------------------------|
D|-2-2-2-2-2-2-2---------------------------------2---2-0-----|
A|---------------3---3-3-3-3-3-3-5---5-5-5-5-5-5---------3-2-|
E|-----------------------------------------------------------|
[ Tab from: http://www.guitartabs.cc/tabs/h/hermetica/tu_eres_su_seguridad_btab.html ]
'Son quienes no alcanzan la paz...'
G|---------------------------------------------------------------|
E|-----------------------------------------------------7---------|
D|-------------------------------------------------5-4-5---5-4---|
A|-0---2---0-2-3---2-3-5---5-3-2---0-2-3---2-3-5-----------------|

Durante el solo:
G|---------2-4-------------4-2-------------------------------------7-----|
D|-0-2-4-5-----5-4-5-4-2---------0---2---0-2-----------2-0---5-4-5---5-4-|
A|---------------------------------------------5---3---------------------|
E|-----------------------------------------------------------------------|

Despues: MI - DO - RE

'Mata el miedo que guarda el animal...'
G|---------------------------------------------------------------|
D|-2-2-2-2-2-2-2---------------------------------2---2-2-2-2-2-0-|
A|---------------3---3-3-3-3-3-3-5---5-5-5-5-5-5-----------------|
E|---------------------------------------------------------------|

'Limpia el cuerpo pues dentro de el estas...'
G|-----------------------------------------------------------|
D|-2-2-2-2-2-2-2---------------------------------2---2-0-----|
A|---------------3---3-3-3-3-3-3-5---5-5-5-5-5-5---------3-2-|
E|-----------------------------------------------------------|

'Si buscas libertad...'
G|-------------------------------------------------------------|
D|-------------------------------------------------------------|
A|-0---2---0-2-3---2-3-5---5-3-2---0-2-3---2-3-5---------------|
E|-------------------------------------------------------------|

Final:
G|-------7-----------------------------------------7-------|
D|-5-4-5---5-4-2---4-4---5-5---7-7-----------5-4-5---5-4-2-|
A|-----------------------------------5-5-------------------|
E|---------------------------------------------------------|
Comments