Hermans Hermits - Silohouettes Chords & Tabs

 

Silohouettes Chords & Tabs

Hermans Hermits Chords & Tabs

Version: 1 Type: Chords 0 ratings
1 star 2 stars 3 stars 4 stars 5 stars
comments

Silohouettes Chords

   
#----------------------------------PLEASE NOTE---------------------------------#
#This file is the author's own work and represents their interpretation of the #
#song. You may only use this file for private study, scholarship, or research. #
#------------------------------------------------------------------------------#
#
Artist:	'Herman's Hermits' (Slay/Crewe)
Title:	Silhouettes
(Tabbed with an acoustic guitar)
Originally a 'Rays' song, Herman's Hermits had great success
with this one both in England and the US.
Intro(Main Riff)(Repeated throughout parts of song):
Play 2x
    G		    Em		      C
E|----------------------------------------------------------|
B|-------0--------------------------------------------------|
G|--0--2---2--0-----------0---------------------------------|
D|---------------4--2--4-----4--2--0-----0--2--0------------|
A|------------------------------------3-----------3--2------|
E|----------------------------------------------------------|
    D        C
E|----------------------------------------------------------|
B|----------------------------------------------------------|
G|----------------------------------------------------------|
D|-----------0--2--4----------------------------------------|
A|--0--2--3-------------------------------------------------|
E|----------------------------------------------------------|
Verse 1:
[ Tab from: http://www.guitartabs.cc/tabs/h/hermans_hermits/silohouettes_crd.html ]
Verse 2:
Bridge:
	Em          C		      D	    C	  G
Ahhh ah-ah ah-ah ah ahhhhhhh (Ahhh ah-ah ah-ah ah ahhhhhhh)
	Em          C                 D                 G
Ahhh ah-ah ah-ah ah ahhhhhhh-ahhhhhhh-ahhhhhhh-ahhhhhhh-AHHHHHHH
Solo:
Play 2x (then go to second part)
    G      Em         C    D  C  G
E|----------------------------------------------------------|
B|---------0--------0-1----3--1-----------------------------|
G|--0--2-----0-2-----------------0--------------------------|
D|----------------------------------------------------------|
A|----------------------------------------------------------|
E|----------------------------------------------------------|
    G      Em         C      D     C          
E|----------------------------------------------------------|
B|---------0--------0-1----0--------------------------------|
G|--0--2-----0-2-------------2-2-2-----2*...----------------|
D|---------------------------------4-4----------------------|
A|----------------------------------------------------------|
E|----------------------------------------------------------|
		 *...leads into main riff
(Rythm & main riff moves up 1/2 octave after the '*' main riff)	
Verse 3:

(Repeat Bridge one octave higher)
fade...
							 
EADGBE	EADGBE	EADGBE	EADGBE 
320003	022000	x32010	xx0232 
					                                         
  G	  Em	  C	  D	 
							 
EADGBE	EADGBE	EADGBE	EADGBE 
xx111x	xx3111	xxx121	xx1343 
							 
  G#      Fm      C#      D#	  						       

The new ace tabber... Ryan
If you have any questions of comments E-mail me:
lennon@dakotacom.net
Comments