Hermans Hermits - George And The Dragon Chords & Tabs

 

George And The Dragon Chords & Tabs

Hermans Hermits Chords & Tabs

Version: 1 Type: Bass Tab

George And The Dragon Bass Tab

Intro:
G------------------------------------------------------------------------|
D----------------0-------------------------------------------------------|
A---0-1-----3-4-----1----3-3-3-------------------------------------------|
E-1----------------------------------------------------------------------|
Verse:
G----------------------------------------------------------------------3-|
D--3------3-------3------3--------3------3---3---3-----5-------3---3-----|
A-----------------------------------3-3---------------------0------------|
E------------------------------------------------------------------------|

G------------------------------------------------------------------------|
D-3-2-3---------3------3-3-----------------------------------------------|
A--------3---3-----------------------------------------------------------|
E------------------------------------------------------------------------|
Transcribed with Digital Music Mentor.
[ Tab from: http://www.guitartabs.cc/tabs/h/hermans_hermits/george_and_the_dragon_btab.html ]