Hermans Hermits - Daisy Chain Part 2 Chords & Tabs

 

Daisy Chain Part 2 Chords & Tabs

Hermans Hermits Chords & Tabs

Version: 1 Type: Bass Tab

Daisy Chain Part 2 Bass Tab

G-------------------------------------------------|
D-------------------------------------------------|
A-0--0-0-----0------------------------------------|
E--------0h3----3--3-3----------------------------|
[ Tab from: http://www.guitartabs.cc/tabs/h/hermans_hermits/daisy_chain_part_2_btab.html ]
G-------------------------------------------------|
D------2-----0---0--------------------------------|
A--------0h2---2----------------------------------|  Play twice
E-0-----------------------------------------------|

G-------------------------------------------------|
D-----------0-0-0----0----------------------------|
A-0-0--0-0-------------0--------------------------| play twice
E------------------3------3-----------------------|

You probably don't know this song, but it's fun to play anyway.