Herman Brood - Never Be Clever Chords & Tabs

 

Never Be Clever Chords & Tabs

Herman Brood Chords & Tabs

Version: 1 Type: Bass Tab

Never Be Clever Bass Tab

Herman Brood & his wild romance - Never be clever bass tab

 Intro & chorus                           
     (first two notes only in intro)
G||-----------------------|-----------------------|
D||-----------------------|-------7----6----6--4--|
A||--------------------5--|-----------------------|
E||-----------------5-----|--5--------------------|

			    \/ (In the chorus play some extra 7s at the mark)
|-------------------------|-----------------------|----------------------|
|-----4-------------4--7--|-----------7--4-----7--|--7-------------------|
|-----------5----7--------|-----------------7-----|-------------------5--|
|-------------------------|-----------------------|----------------5-----|
[ Tab from: http://www.guitartabs.cc/tabs/h/herman_brood/never_be_clever_btab.html ]
Verse
|-------------------------|-------------------------|--------------------------|
|-------------------------|-------------------------|-----4-----4-----4--------|
|-------------------------|--7-------7-----7--0--4--|--7-----------------------|
|--5-------5-----5--0--5--|-------------------------|--------------------5--7--|
 
|------------------------|
|----------4--7----7--4--|
|--5----7----------------|x2
|------------------------|

Pre-chorus
|---------------------------|--------------------------|
|---------------------------|--------------------------|
|---7--7-----7-----7-----7--|-----7-----7-----7--7--7--|
|---------------------------|--------------------------|


|---------------------------|--------------------------|
|------4-----4-----4--------|-----------4--7----7--4---|
|---7-----------------------|---5----7-----------------|
|---------------------5--7--|--------------------------|x2


 
Solo
|------------------------|-----------7--4----------|
|------------------------|-----6--7--------6--7----|
|----------------5--7----|--7----------------------|
|--5--7--8----8----------|-------------------------|x4

|------------------------|-----------7--4----------|
|--7---------------------|-----6--7--------6--7----|
|-----7--9--10-----5--7--|--7----------------------|
|---------------8--------|-------------------------|x4


This is not complete, it misses some extra riffs, and it's
probably not 100% accurate, but most of it is correct.
Listen to the song for timing and extra riffs/misstakes.