Herendeen Todd Allen - Little Boy Blue Chords & Tabs

 

Little Boy Blue Chords & Tabs

Herendeen Todd Allen Chords & Tabs

Version: 1 Type: Tab 0 ratings
1 star 2 stars 3 stars 4 stars 5 stars
comments

Little Boy Blue Tab

   
 Little Boy Blue - Todd Allen Herendeen
                                                      x2
e -------------12----------------------------
B -----13-15-----15-12-13-12-----12-13-
G -12----------------------------14---------
D --------------------------------------------
A --------------------------------------------
E --------------------------------------------

C            Am
Little boy blue,
F                 C
Alone in the streets.
C                              Am    (Walk from C to Am)
There's a whole in his shoe,
F                     G
And cold on his feet.
F                 G
He wonders about,
                       C         Am
With hurt in his eyes.
                            F
But he never gives up,
G                     C
And never asks why.
C                  Am
Why he's the one,
F                       C
With no one who cares.
                       Am
Where can they be,
F                G
He's looked everywhere.
F                        G
Tonight where he sleeps,
                    C      Am
He ain't got a clue.
                         F
That's life on the streets,
G                C
For little boy blue.

(Chorus)
                   F        G
And little boy blue,
                    C       Am
I want you to know.
       G               F
That Jesus loves you,
G                    C
You don't walk alone.
                        F            G
Where ever you are tonight,
                      C   B  Am
I'm thinking of you______.
        G               F
Don't give up the fight,
G            C
Little boy blue.

(Guitar Lead)

e -----------12---------------------15b-14-12-13-14---
B ----13-15----15-12-13-12---12--------------------14
G -12-------------------------15--------------------------
D ----------------------------------------------------------
A ----------------------------------------------------------
E ----------------------------------------------------------
[ Tab from: http://www.guitartabs.cc/tabs/h/herendeen_todd_allen/little_boy_blue_tab.html ]
e -----------12---------------12-------------------------------------
B ----13-15----15----13-15----12-13-12----12-13----------12H-
G -12--------------12----------------------14---------12H-8H------
D ------------------------------------------------------12H----------
A ---------------------------------------------------------------------
E ---------------------------------------------------------------------

C                  Am
The cold wind blows,
F                             C
And night comes too soon.
C                       Am        (Walk from C to Am)
There's no words tonight,
F                            G
From the man in the moon.
F                    G
So he hundles tonight,
                             C     Am
By the warm of the vent.
                F
Wondering where,
      G               C
The love of God went.
C             Am
We all live here,
F                C
In our busy worlds.
C                       Am
We're blind to the fate,
F                           G
Of the boys and the girls.
F                  G
Who fend for themselves,
                   C                    Am
Down on the darkside of this town,
                           F
They're crying out loud.
G                   C
We hear not a sound.

(Chorus)
                    F       G
And little boy blue,
                    C        Am
I want you to know.
       G               F
That Jesus loves you,
G                    C
You don't walk alone.
                         F   G
Where ever you are tonight,
                      C  B Am
I'm thinking of you_____.
         G              F
Don't give up the fight,
G            C
Little boy blue____.
                       F
I'm praying for you tonight,
                    C
Yes Little boy blue.

(Tag)
 

e -------------12-----------------------------
B -----13-15-----15-12-13-12-----12-13--
G -12----------------------------14----------
D --------------------------------------------
A ---------------------------------------------
E ---------------------------------------------

(Ending)
F-C
Comments