Herder Nerf - Buffy The Vampire Slayer Theme Chords & Tabs

 

Buffy The Vampire Slayer Theme Chords & Tabs

Herder Nerf Chords & Tabs

Version: 1 Type: Tab 0 ratings
1 star 2 stars 3 stars 4 stars 5 stars
comments

Buffy The Vampire Slayer Theme Tab

----------------------------------------------
'BUFFY THE VAMPIRE SLAYER' THEME - NERF HERDER
----------------------------------------------

Tabbed by Joe Swindells

Hey up, I couldn't find any decent tabs for this song so I just thought I'd tab it. I'm 100 percent sure this is correct. So enjoy...

===============================================================================
[WOLF HOWL]

[ORGAN TRANSCRIBED FOR GUITAR]
e|------------------|------------------|
B|------------------|------------------|
G|---------------0--|------------------|
D|-2-------4--------|-0----------------|
A|------------------|------------------|
E|------------------|------------------|

[BOTH GUITARS PICK SCRAPES]
===============================================================================

e|------------------|------------------|------------------|------------------|
B|------------------|------------------|------------------|------------------|G
G|-9-------11---12--|-7----------------|-77---------9--11-|-7------------x\--|T
D|------------------|------------------|------------------|------------------|R
A|-7--------9---10--|-5----------------|-55---------7---9-|-5------------x\--|1
E|------------------|------------------|------------------|------------------|
 |                                                                           |
e|------------------|------------------|------------------|------------------|
B|------------------|------------------|------------------|------------------|G
G|------------------|------------------|-4-4-4-4-4-4-4-4--|-7-7-7-7-7-7-7-7--|T
D|-2-2-2-2-2-2-2-2--|-5-5-5-5-5-5-5-5--|-4-4-4-4-4-4-4-4--|-7-7-7-7-7-7-7-7--|R
A|-2-2-2-2-2-2-2-2--|-5-5-5-5-5-5-5-5--|-2-2-2-2-2-2-2-2--|-5-5-5-5-5-5-5-5--|2
E|-0-0-0-0-0-0-0-0--|-3-3-3-3-3-3-3-3--|------------------|------------------|

===============================================================================
[ Tab from: http://www.guitartabs.cc/tabs/h/herder_nerf/buffy_the_vampire_slayer_theme_tab.html ]
e|------------------|------------------|------------------|------------------|
B|------------------|------------------|------------------|------------------|G
G|-9999999-1111-12--|-7777777777777777-|-777777777-99--11-|-77777777777------|T
D|------------------|------------------|------------------|------------------|R
A|-7777777--9-9-10--|-5555555555555555-|-555555555-77---9-|-55555555555------|1
E|------------------|------------------|------------------|------------------|
 |                                                                           |
e|------------------|------------------|------------------|------------------|
B|------------------|------------------|------------------|------------------|G
G|------------------|------------------|-4444444444444444-|-7777777777777777-|T
D|-2222222222222222-|-5555555555555555-|-4444444444444444-|-7777777777777777-|R
A|-2222222222222222-|-5555555555555555-|-2222222222222222-|-5555555555555555-|2
E|-0000000000000000-|-3333333333333333-|------------------|------------------|

===============================================================================

e|------------------|------------------|------------------|
B|-10-------12---10-|-8------------8\7-|-777777777--------|G
G|------------------|------------------|------------x\----|T
D|------------------|------------------|------------------|R
A|------------------|------------------|------------x\----|1
E|------------------|------------------|------------------|
 |                                                        |
e|------------------|------------------|------------------|
B|------------------|------------------|------------------|G
G|-7----------------|------------------|-4444444444444444-|T
D|-7-[let ring]-----|-7----------------|-4444444444444444-|R
A|-5----------------|-7-[let ring]-----|-2222222222222222-|2
E|------------------|-5----------------|------------------|

===============================================================================

e|-7777777-10-10-12-|-7777777-10-10-12-|-5555555-77-10-10-|
B|------------------|------------------|------------------|G
G|------------------|------------------|------------------|T
D|------------------|------------------|------------------|R
A|------------------|------------------|------------------|1
E|------------------|------------------|------------------|
 |                                                        |
e|------------------|------------------|------------------|
B|------------------|------------------|------------------|G
G|------------------|------------------|-4444444444444444-|T
D|-2222222222222222-|-5555555555555555-|-4444444444444444-|R
A|-2222222222222222-|-5555555555555555-|-2222222222222222-|2
E|-0000000000000000-|-3333333333333333-|------------------|

===============================================================================

e|-555555555555555/-|-666666666666666/-|------------------|
B|------------------|------------------|------------------|G
G|------------------|------------------|-9-----9-----9----|T
D|------------------|------------------|-------------9----|R
A|------------------|------------------|-7-----7-----7----|1
E|------------------|------------------|------------------|
 |                                                        |
e|------------------|------------------|------------------|
B|------------------|------------------|------------------|G
G|-7777777777777777-|-8888888888888888-|------------------|T
D|-7777777777777777-|-8888888888888888-|-2-----2-----2----|R
A|-5555555555555555-|-6666666666666666-|-2-----2-----2----|2
E|------------------|------------------|-0-----0-----0----|

===============================================================================
Comments