Hepcat - Penny Reel Chords & Tabs

 

Penny Reel Chords & Tabs

Hepcat Chords & Tabs

Version: 2 Type: Bass Tab 0 ratings
1 star 2 stars 3 stars 4 stars 5 stars
comments

Penny Reel Bass Tab

Song: Penny Reel
Band: HepCat
tabbed by: ALBINO  (bbfan@bellatlantic.net)
http://www.divineweb.com/tabs



G:---------------------------------------------------------------
D:-1-1--1-----------------------------------------------------------
A:--------3-1------------------------------------------------------
E:---------------------------------------------------------------

[ Tab from: http://www.guitartabs.cc/tabs/h/hepcat/penny_reel_btab_ver_2.html ]
G:---------------------------------------------------------------
D:-3-3--3-----------------------------------------------------------
A:--------3-1------------------------------------------------------
E:---------------------------------------------------------------

He just plays those 2 parts the whole song. Listen to it to find out the 
order. Sometimes he will play an extra note when going from the 1s part to 
the 2nd part.  Questions/Corrections: bbfan@bellatlantic.net
Comments