Henry Mancini - Pink Panther Theme Chords & Tabs

 

Pink Panther Theme Chords & Tabs

Henry Mancini Chords & Tabs

Version: 2 Type: Tab 0 ratings
1 star 2 stars 3 stars 4 stars 5 stars
comments

Pink Panther Theme Tab

   
-------------------------------------------------------------------------------
			     The Pink Panther Theme Tune	
-------------------------------------------------------------------------------
Tabbed by: Kowalski	

Tuning: Standard

Heres a well known favourite to learn!!

Bass Intro : 

e|----------------------+-------|
B|----------------------+-------|
G|----------------------+-------| x2
D|------------------------------|
A|----5-6-7---------------------|
E|--7---------7----0------------|

Main Tune :
[ Tab from: http://www.guitartabs.cc/tabs/h/henry_mancini/pink_panther_theme_tab_ver_2.html ]
e|-----------------------------------------------------------|
B|-----------------------------------------------------------|
G|-----------------------------------------------------------| 
D|----------4-5-----4-5-8-9---5-8-7~------8p7\5--------------|
A|----5-6-7-----6-7---------7----------7-------6-7-----------|
E|--7--------------------------------------------------------|


e|-----------------------------------------------------------|
B|-----------------------------------------------------------|
G|----9p7----------------------------------------------------|
D|--------8p7\5---5h7-5h7-5h7-5h7-7p5-----------------------|
A|--7-----------7----------------------7--6-7----------------|
E|-----------------------------------------------------------|


| /  slide up
| \  slide down
| h  hammer-on
| p  pull-off
| ~  vibrato
| +  harmonic
| x  Mute note
Comments