Henry Mancini - Pink Panther Theme Chords & Tabs

 

Pink Panther Theme Chords & Tabs

Henry Mancini Chords & Tabs

Version: 1 Type: Tab 0 ratings
1 star 2 stars 3 stars 4 stars 5 stars
comments

Pink Panther Theme Tab

Pink Panther - Henry Mancini

I took the piano music and have done the left and right hand here, though
i think some of the left hand would be better on a bass. I think it works
quite well on the guitar particularly the little runs. I'm pretty sure the
key is Em

|---------------------------------------------------------------------
|---------------------------------13-12-------12-11vvv---10p8---------
|------8-9---11-12---8-9---11-12---------9-12-----------------9-7-9---
|---------------------------------------------------------------------
|---------------------------------------------------------------------
|---------------------------------------------------------------------
|                                                             
|---------------------------------------------------------------------
|---------------------------------------------------------------------
|---------------------------------------------------------------------
|-6/7--8/9--------------------------8/7--6/5--------------------------
|-4/5--6/7-------------7------------6/5--4/3------------------------3-
|----------------7-------------------------------3--------------------
                                                                      
|-------------------------------------------------12-11---------------
|---------------------------------13-12-------12----------------------
|------8-9---11-12---8-9---11-12-----------12-------------------------
|---------------------------------------------------------------------
|---------------------------------------------------------------------
|---------------------------------------------------------------------
|                                                                     
|---------------------------------------------------------------------
|---------------------------------------------------------------------
|---------------------------------------------------------------------
|-6/7--8/9----------------------------------7/8----9/8----------------
|-4/5--6/7-------------7--------------------5/6----7/6----------------
|----------------7----------------------------------------------------
[ Tab from: http://www.guitartabs.cc/tabs/h/henry_mancini/pink_panther_theme_tab.html ]
|---------------------------------------------------------------------
|---------------------------------13-12-------12-11vvv---10p8---------
|------8-9---11-12---8-9---11-12---------9-12-----------------9-7-9---
|---------------------------------------------------------------------
|---------------------------------------------------------------------
|---------------------------------------------------------------------
|                                                             
|---------------------------------------------------------------------
|---------------------------------------------------------------------
|---------------------------------------------------------------------
|-6/7--8/9--------------------------8/7--6/5--------------------------
|-4/5--6/7-------------7------------6/5--4/3------------------------3-
|----------------7-------------------------------3--------------------

						      
|-----------12-10-----------------------------------------------------
|-----------------12-10-------12p11-12p11-12p11-12p11-----------------
|-----------------------12-9----------------------------12p9----9-9---
|------------------------------------------------------------12-------
|---------------------------------------------------------------------
|---------------------------------------------------------------------
|                                                                     
|---------------------------------------------------------------------
|---------------------------------------------------------------------
|---------------------------------------------------------------------
|-6/7--8/9------------------------------------------------------------
|-4/5--6/7------------------------------------------------------------
|---------------------------------------------------------------------

 you could probably solo over the top of this (the key is Em)
|---------------------------------------------------------------------
|---------------------------------------------------------------------
|------------------------12p9----9-9----------------------12p9----9-9-
|-----------------------------12-------------------------------12-----
|---------------------------------------------------------------------
|---------------------------------------------------------------------
|                                                                     
|---------------------------------------------------------------------
|---------------------------------------------------------------------
|---------------------------------------------------------------------
|-6/7--8/9---------------------------8/7--6/5-------------------------
|-4/5--6/7-------------7-------------6/5--4/3-----------3-------------
|----------------7--------------------------------3-------------------

|-----------------------------------------------0---------------------
|-----------------------------------------16----0---------------------
|-----------------------------------------16----0---------------------
|--------------------------------------------or-4---------------------
|-----------------------------------------14----2---------------------
|-----------------------------------------15----0---------------------
|                                         {---------------tremolo arm
|---------------------------------------------------------------------
|---------------------------------------------------------------------
|-----------------------------------------9---------------------------
|-6/7--8/9--------------------------------9---------------------------
|-4/5--6/7-------------7------------------7---------------------------
|----------------7-----------7----0-----------------------------------
Comments