Henry Mancini - Pink Panter Theme Chords & Tabs

 

Pink Panter Theme Chords & Tabs

Henry Mancini Chords & Tabs

Version: 1 Type: Tab 0 ratings
1 star 2 stars 3 stars 4 stars 5 stars
comments

Pink Panter Theme Tab

 The Pink Panther                                 

Guitar
By Edu Fernández Peña jerekeprro@msn.com

                                                                     
E||-----------------------|-------------------|---------------------|
B||-----------------------|-------------------|---------------------|
G||-----------------------|-------------------|---------------------|
D||--x--------x---6-7---8-|--9----------------|-------------6-7---8-|
A||--x--------x---4-5---6-|--7----------------|-------------4-5---6-|
E||-----------------------|-------------------|---------------------|


                                                              
-------------------|---------------------|-------------------|
-------------------|---------------------|-------------------|
-------------------|---------------------|-------------------|
--9----------------|-------------8-7---6-|--5----------------|
--7----------------|-------------6-5---4-|--3----------------|
-------------------|---------------------|-------------------|


                                                              
---------------------|-------------------|-------------------|
---------------------|-------------------|-------------------|
---------------------|-------------------|-----------------8-|
-------------6-7---8-|--9----------------|-------------------|
-------------4-5---6-|--7----------------|-------------------|
---------------------|-------------------|-------------------|


                                                          
------------------------|--------------------------------|
------------------------|--------------13-12----------12-|
--9-------11-12-------8-|--9---11-12-----------9-12------|
------------------------|--------------------------------|
------------------------|--------------------------------|
------------------------|--------------------------------|


                                                                            
------------------------------|-------------------|------------------------|
--11----------10--8-----------|-------------------|------------------------|
---------------------9--7--9--|-----------------8-|--9-------11-12-------8-|
------------------------------|-------------------|------------------------|
------------------------------|-------------------|------------------------|
------------------------------|-------------------|------------------------|


                                                                           
---------------------------------|--------------------|-------------------|
--------------13-12------12---17-|--16----------------|-------------------|
--9---11-12-----------12---------|--------------------|-----------------8-|
---------------------------------|--------------------|-------------------|
---------------------------------|--------------------|-------------------|
---------------------------------|--------------------|-------------------|


                                                          
------------------------|--------------------------------|
------------------------|--------------13-12----------12-|
--9-------11-12-------8-|--9---11-12-----------9-12------|
------------------------|--------------------------------|
------------------------|--------------------------------|
------------------------|--------------------------------|


                                                                                
------------------------------|------------------|------12---10----------------|
--11----------10--8-----------|------------------|--------------12---10--------|
---------------------9--7--9--|------------------|----------------------12---9-|
------------------------------|------------------|-----------------------------|
------------------------------|------------------|-----------------------------|
------------------------------|------------------|-----------------------------|


                                                               
----------------------------------|---------------------------|
--11-10---11-10---11-10---11-10---|---------------------------|
----------------------------------|--12--9------9--9----------|
----------------------------------|---------12----------------|
----------------------------------|---------------------------|
----------------------------------|---------------------------|

[ Tab from: http://www.guitartabs.cc/tabs/h/henry_mancini/pink_panter_theme_tab.html ]
                                                                  
------------------|---------------------------|------------------|
------------------|---------------------------|------------------|
------------------|--12--9------9--9----------|------------------|
------------------|---------12----------------|------------------|
------------------|---------------------------|------------------|
------------------|---------------------------|------------------|


                                                                            
---------------------------|--------------------|-----------14-15----------|
---------------------------|-----------------16-|--17-------------------16-|
--12--9------9--9----------|--------------------|--------------------------|
---------12----------------|--------------------|--------------------------|
---------------------------|--------------------|--------------------------|
---------------------------|--------------------|--------------------------|


                                                                      
-------14-15---20-19-----------19-|--18----------17--15--------------|
--17-------------------17-20------|----------------------17--15--17--|
----------------------------------|----------------------------------|
----------------------------------|----------------------------------|
----------------------------------|----------------------------------|
----------------------------------|----------------------------------|


                                                
--------------------|-----------14-15----------|
-----------------16-|--17-------------------16-|
--------------------|--------------------------|
--------------------|--------------------------|
--------------------|--------------------------|
--------------------|--------------------------|


                                                                             
-------14-15---20-19------19---24-|--23----------------|--------------------|
--17-------------------20---------|--------------------|-----------------16-|
----------------------------------|--------------------|--------------------|
----------------------------------|--------------------|--------------------|
----------------------------------|--------------------|--------------------|
----------------------------------|--------------------|--------------------|


                                                              
-----------14-15----------|-------14-15---20-19-----------19-|
--17-------------------16-|--17-------------------17-20------|
--------------------------|----------------------------------|
--------------------------|----------------------------------|
--------------------------|----------------------------------|
--------------------------|----------------------------------|


                                                      
--18----------17--15--------------|------------------|
----------------------17--15--17--|------------------|
----------------------------------|------------------|
----------------------------------|------------------|
----------------------------------|------------------|
----------------------------------|------------------|


                                                                 
------12---10----------------|----------------------------------|
--------------12---10--------|--11-10---11-10---11-10---11-10---|
----------------------12---9-|----------------------------------|
-----------------------------|----------------------------------|
-----------------------------|----------------------------------|
-----------------------------|----------------------------------|


                                                                           
---------------------------|------------------|---------------------------|
---------------------------|------------------|---------------------------|
--12--9------9--9----------|------------------|--12--9------9--9----------|
---------12----------------|------------------|---------12----------------|
---------------------------|------------------|---------------------------|
---------------------------|------------------|---------------------------|


                                                                   
------------------|---------------------------|--------------2----|
------------------|---------------------------|--------------4----|
------------------|--12--9------9--9----------|--------------4----|
------------------|---------12----------------|--------------5----|
------------------|---------------------------|-------------------|
------------------|---------------------------|-------------------|


                    
------------------||
------------------||
------------------||
------------------||
------------------||
------------------||
Comments