Henley Don - Heart Of The Matter Chords & Tabs

 

Heart Of The Matter Chords & Tabs

Henley Don Chords & Tabs

Version: 1 Type: Tab 0 ratings
1 star 2 stars 3 stars 4 stars 5 stars
comments

Heart Of The Matter Tab

   
#----------------------------------PLEASE NOTE---------------------------------#
#This file is the author's own work and represents their interpretation of the #
#song. You may only use this file for private study, scholarship, or research. #
#------------------------------------------------------------------------------#

HEART OF THE MATTER
                            As recorded by Don Henley
                 (From the 1989 Album THE END OF THE INNOCENSE)

Transcribed by sadorsky@shaw.ca

 Intro
  Gtr I
|-2--2--0-2-0----|-3-------------|-2--2--0-2-0----|-3--------------|
|-3--3--3-3-3----|-3-------------|-3--3--3-3-3----|-3--------------|
|-2--2--2-2-2----|-0-------------|-2--2--2-2-2----|-0--------------|
|-0--0--0-0-0----|-0-------------|-0--0--0-0-0----|-0--------------|
|----------------|---------------|----------------|----------------|
|----------------|---------------|----------------|----------------|


|-2--2--0-2-0----|-3-------------|-2--2--0-2-0----|-3----3-3-3-3---|
|-3--3--3-3-3----|-3-------------|-3--3--3-3-3----|-3----3-3-3-3---|
|-2--2--2-2-2----|-0-------------|-2--2--2-2-2----|-0----0-0-0-0---|
|-0--0--0-0-0----|-0-------------|-0--0--0-0-0----|-0----0-0-0-0---|
|----------------|---------------|----------------|----------------|
|----------------|---------------|----------------|----------------|

Verse 1&2
  D                A              G
  | |||||||        | |||||||      | |||||||       ||||| | | |
  / ///////        / ///////      / ///////       ///// / / /
                                            Guitar Fill 1 2nd time through verse
|-2--------------|-0-------------|-3-------------|-----------------|
|-3--------------|-2-------------|-0-------------|-----------------|
|-2--------------|-2-------------|-0-------------|-----5--4--2--0--|
|-0--------------|-2-------------|-0-------------|-----------------|
|----------------|-0-------------|-2-------------|-----------------|
|----------------|---------------|-3-------------|-----------------|
 

|-2--------------|-0-------------|-3-------------|-----------------|
|-3--------------|-2-------------|-0-------------|-----------------|
|-2--------------|-2-------------|-0-------------|-----5--4--2--0--|
|-0--------------|-2-------------|-0-------------|-----------------|
|----------------|-0-------------|-2-------------|-----------------|
|----------------|---------------|-3-------------|-----------------|


Fill 1
|---------------|----|
|-------3-----3-|----|
|-----0-----0---|----|
|---0-----0-----|----|
|---------------|----|
|---------------|----|


 
Pre Chorus
 A7sus4/E                       G
|-3------------|--------------|-3-------------|-----------------|
|-3------------|--------------|-3-------------|-----------------|
|-2------------|--------------|-0-------------|-----------------|
|-2------------|--------------|-0-------------|-----------------|
|-0------------|--------------|-2-------------|-----------------|
|-0------------|--------------|-3-------------|-----------------|
 
                                                A
|-3------------|--------------|-3-------------|-0-------0-0-0-0-|
|-3------------|--------------|-3-------------|-2-------2-2-2-2-|
|-2------------|--------------|-0-------------|-2-------2-2-2-2-|
|-2------------|--------------|-0-------------|-2-------2-2-2-2-|
|-0------------|--------------|-2-------------|-0-------0-0-0-0-|
|-0------------|--------------|-3-------------|-----------------|

[ Tab from: http://www.guitartabs.cc/tabs/h/henley_don/heart_of_the_matter_tab.html ]
  Chorus Guitar 1 
  D             A             Bm/F#            G
|-2------------|-0------------|-2------------|-3----------------|
|-3------------|-2------------|-3------------|-0----------------|
|-2------------|-2------------|-4------------|-0----------------|
|-0------------|-2------------|-4------------|-0----------------|
|--------------|-0------------|-2------------|-2----------------|
|--------------|--------------|-2------------|-3----------------|
 
Guitar 2
|-------2--5---|----2--3--5---|----2--5--2---|----2--3--5-------|
|----3---------|-3------------|-3------------|-3----------------|
|-2------------|--------------|--------------|------------------|
|--------------|--------------|--------------|------------------|
|--------------|--------------|--------------|------------------|
|--------------|--------------|--------------|------------------|

  Both Guitars
  D             Bm              G              A
|-2------------|-2------------|-3------------|-0----------------|
|-3------------|-3------------|-0------------|-2----------------|
|-2------------|-4------------|-0------------|-2----------------|
|-0------------|-4------------|-0------------|-2----------------|
|--------------|-2------------|-2------------|-0----------------|
|--------------|--------------|-3------------|------------------|
  

Bridge
D                             C              G/E
  | |||||||     ||| | | | | |   | |||||||      | |||||||
  / ///////     /// / / / / /   / ///////      / ///////

|-2------------|--------------|-0------------|-3----------------|
|-3------------|--------------|-1------------|-0----------------|
|-2------------|--------------|-0------------|-0----------------|
|-0------------|--0-0-4-4-5-5-|-2------------|-0----------------|
|--------------|--------------|-3------------|-2----------------|
|--------------|--------------|--------------|-0----------------|
                      

  Am             G             C               G/E
  | |||||||      | |||||||     | |||||||       | |||||||
  / ///////      / ///////     / ///////       / ///////
                          Guitar fill 2             
|-0------------|-3-----------|-0-------------|-3---------------|
|-1------------|-0-----------|-1-------------|-0---------------|
|-2------------|-0-----------|-0-------------|-0---------------|
|-2------------|-0-----------|-2-------------|-0---------------|
|-0------------|-2-----------|-3-------------|-2---------------|
|--------------|-3-----------|---------------|-0---------------|
  

  A                          Chorus 4 times with ad lib guitar to fade   
|-0------------|-0-----------|---------------|-----------------|
|-2------------|-2-----------|---------------|-----------------|
|-2------------|-2-----------|---------------|-----------------|
|-2------------|-2-----------|---------------|-----------------|
|-0------------|-0-----------|---------------|-----------------|
|--------------|-------------|---------------|-----------------|
 

 Fill 2
|-----------------|----|
|-10b12--8---8----|----|
|----------9------|----|
|-----------------|----|
|-----------------|----|
|-----------------|----|



***************************************************************************************
* Generated using Power Tab Editor by Brad Larsen - For a Polished copy of this Transcription contact T-Tabs at sadorsky@shaw.ca
* ***************************************************************************************
Comments