Henley Don - Boys Of Summer Chords & Tabs

 

Boys Of Summer Chords & Tabs

Henley Don Chords & Tabs

Version: 1 Type: Tab 2 ratings
1 star 2 stars 3 stars 4 stars 5 stars
comments

Boys Of Summer Tab

   
			     The Boys Of Summer
                               by Don Henley

                Transcribed by Louise

Key:	H - HAMMER ON by picking the first note then fretting the following note.
	P - PULL OFF from the first note to sound the following note.
       ^f - Full Bend
	~ - Vibrato
 	/ - Slide up
	\ - Slide down

Intro
------|---|-----------|---|----------|---|----------|---|---P-P--------------|
------|---|-----------|---|----------|---|-8--------|---|-10-8----8----------|
-7/9~-|---|-----7-----|---|-----7----|---|---9-7-9~-|---|-------7----9-7-7/9-|
------|---|-7/9---9~--|---|-7/9---9~-|---|----------|---|--------------------|
------|---|-----------|---|----------|---|----------|---|--------------------|
------|---|-----------|---|----------|---|----------|---|--------------------|

----------|
-12-10~---|
----------|
----------|
----------|
----------|

Chorus
custom chords to sound more like the original:
 G   C   D
-3---3---2-
-3---3---3-	
-O---O---2-	
-O---2---O-	
-X---3-----	
-3---------
[ Tab from: http://www.guitartabs.cc/tabs/h/henley_don/boys_of_summer_tab.html ]
G		  D
But I can see you,  you brown skin shining in the sun
D				      C
You got your hair combed back and your  sunglasses on, baby
D		  D
I can tell you my love for you will still be strong
D		  C
After the boys of summer have gone

Played before the second verse starts
--------------------|-------------|-------------|
--------------------|-------------|---8---------|
--------------------|--------7----|------9---7~-|
-7/9--12--9--7-7/9~-|-7---9-----9~|-------------|
--------------------|-------------|-------------|
--------------------|-------------|-------------|

Then there's the second Chorus... same chords as the first

Then there's the outro:

	(Repeat 7 times)		(play once)
(play 3 times again)			(play once more)
-------------------------|-------------------------------------|
-12~-10~-12~-8~----8~----|--H--8---H--8--H------------8-7-8~~--|
----------------7~-------|-7-9----7-9---7-9-9-7-9-9/11---------|
-------------------------|-------------------------------------|
-------------------------|-------------------------------------|
-------------------------|-------------------------------------|


Comments