Hendrix Jimi - Wild Thing Chords & Tabs

 

Wild Thing Chords & Tabs

Hendrix Jimi Chords & Tabs

Version: 3 Type: Tab 0 ratings
1 star 2 stars 3 stars 4 stars 5 stars
comments

Wild Thing Tab

This is when Jimi plays in Monterey


 THE ORIGINAL RIFF:
e:-------------------------------------------------------------------------------
b:---------3----------5-----3-----------3-------5-------------------------------------
g:-2-------2----------4-----2-----2-----2-------4---------------------------------------
d:-2------------------2-----------2-------------2------------------------------------
a:-------------------------------------------------------------------------------
e:-------------------------------------------------------------------------------
    WILD THING YOU MAKE MY HEART SING..........

e:-------------------------------------------------------------------------------
b:-------------------------------------------------------------------------------
g:-------2---------------2-----------------2--------------2--------------------------
d:-------2---------------2-----------------2--------------2--------------------------
a:-3-----0-------3-------0---------3-------0---------3----0------------------------------
e:-3-------------3-----------------3-----------------3-------------------------------


e:----------------------------------------------------------------------------------
b:-------3-----5-----3--------------------5------------------------------------------
g:-------2-----4-----2------------3-------4-------------------------------------------
d:--2----------2-----------2------2-------2------------------------------------------
a:--2----------------------2-------------------------------------------------------
e:-------------------------------------------------------------------------------
[ Tab from: http://www.guitartabs.cc/tabs/h/hendrix_jimi/wild_thing_tab_ver_3.html ]
   THE GUITAR SOLO:
e:-------------------------------------------------------------------------------
b:-------------------------------------3-5-3-5-3-5-3-5-6-5-3-5-3-1-3-1-3-1-3-1-0-1-3-1-0-----------------
g:----9-11-9-11-9-11-9-11-12-11-9-11-9--------------------------------------------------------------
d:-------------------------------------------------------------------------------
a:0-------------------------------------------------------------------------------
e:-------------------------------------------------------------------------------

 NOW WITH DISTORTION:
e:-------------------------------------------------------------------------------
b:-------------------------------------------------------------------------------
g:--------------2-----------------------------------------------------------------
d:-------------------------------------------------------------------------------
a:-------------------------------------------------------------------------------
e:-------------------------------------------------------------------------------


e:-------------------------------------------------------------------------------
b:-------------------------------------------------------------------------------
g:----2-----------2---------------2-----------------0-2-0-2-0-2-0-2-0-2-0-2---------------------
d:----2-----------2---------------2------------------------------------------------
a:-3--0-----3-----0-------3-----0------------------------------------------------------
e:-3--------3-------------3---------------------------------------------------------
                                      WITH ONLY ONE HAND VERY FAST

Comments