Hendrix Jimi - Voodoo Child Chords & Tabs

 

Voodoo Child Chords & Tabs

Hendrix Jimi Chords & Tabs

Version: 3 Type: Tab 2 ratings
1 star 2 stars 3 stars 4 stars 5 stars
comments

Voodoo Child Tab

#----------------------------------PLEASE NOTE--------------------------------#
#This file is the author's own work and represents their interpretation of the#
#song. You may only use this file for private study, scholarship, or research.#
#-----------------------------------------------------------------------------#
#-- File created with Instab - http://www.pconline.com/~smcarey/instab.html --#
#-----------------------------------------------------------------------------#

Author/Artist: Jimi Hendrix
Title: Voodoo Child
Album: Voodoo Child
Transcribed by: Ryan Madgwick
Email: Kid12386@aol.com
[ Tab from: http://www.guitartabs.cc/tabs/h/hendrix_jimi/voodoo_child_tab_ver_3.html ]
------------------------------------------------------------------------------
------------------------------------------------------------------------------
--9b-r7-----7-------------9-7----7-9b-----------------------------------------
---------9-----5-5-7p5---------9----------------------------------------------
-----------------------7------------------------------------------------------
------------------------------------------------------------------------------
 ^Repeat, and add some little extras to make it sound better                  

-0----------------------------------------------------------------------------
-0----------------------------------------------------------------------------
-1--2v------------------------------------------------------------------------
-2----------2-----------------------------------------------------------------
-2----------------------------------------------------------------------------
-0------3v-----0-0------------------------------------------------------------
 E  on 2 bend up/down really quickly, and repeat and then freestyle likejimi  

Comments