Hendrix Jimi - Third Stone From The Sun Chords & Tabs

 

Third Stone From The Sun Chords & Tabs

Hendrix Jimi Chords & Tabs

Version: 3 Type: Tab 0 ratings
1 star 2 stars 3 stars 4 stars 5 stars
comments

Third Stone From The Sun Tab

#----------------------------------PLEASE NOTE---------------------------------#
#This file is the author's own work and represents their interpretation of the #
#song. You may only use this file for private study, scholarship, or research. #
#------------------------------------------------------------------------------##

Artist: JIMI HENDRIX
Song: Third stone from the sun
Tabbed by : Paul paulhutch55@hotmail.com
                          pm-------------|
e--------------------------------------------------------------------
b----12---12----10---10------------------------------------------------------
g----9----9-----9----9--------------------------------------------------
d----11---11----7----7------------7------------7-----------------------------
a----11---11----7----7---------5-----5-----5------5----------------------------
e----------------------------0----------0------------0--etc

e--------------------------------------------------------------------
b----8-8-8-7--5h7 5h7--5--5--------8--8-7--7h8 7h8 5h7--5--5--------------------------------------
g----7-7-7-7-----------7--6--------7--7-7---------------7--6--------------------
d--------------------------------------------------------------------
a--------------------------------------------------------------------
e--------------------------------------------------------------------
[ Tab from: http://www.guitartabs.cc/tabs/h/hendrix_jimi/third_stone_from_the_sun_tab_ver_3.html ]
e------------------------------------0---0--0---0---0-0-0-------------------
b------------------------------------0---0--0---0---0-0-0-------------------
g----------------------------------2/4---2--0---2---4-5-4---------------------
d-----------7-----------7----------------------------------------------
a--------5-----5-----5------5--------------------------------------------
e-----0-----------0----------------------------------------------------

e-----0--0--0--0--0---0----0------------------------------------------------
b-----0--0--0--0--3-h-5-p--3--------------------------------------------------
g---2/4--2--0--2-----------------------------------------------------------
d--------------------------------------------------------------------
a--------------------------------------------------------------------
e--------------------------------------------------------------------

e--------------------------------------------------------------------
b--------------------------------------------------------------------
g---11/13---11---9---11\-6-/--9----------------------------------------------------
d--------------------------------------------------------------------
a---9-/11----9---7---9-\-4-/--7-------------------------------------------------
e--------------------------------------------------------------------

And it goes on like that for ages using that chord sliding around with the whammy bar
for a while , then it breaks out in to solo using the pentatonic scale at 12th position!

If you really want me to tob the rest out email me on paulhutch55@hotmail.com!

Enjoy

Paul
Comments