Hendrix Jimi - The Wind Cries Mary Chords & Tabs

 

The Wind Cries Mary Chords & Tabs

Hendrix Jimi Chords & Tabs

Version: 1 Type: Tab 5 ratings
1 star 2 stars 3 stars 4 stars 5 stars
comments

The Wind Cries Mary Tab

   
#----------------------------------PLEASE NOTE---------------------------------#
#This file is the author's own work and represents their interpretation of the #
#song. You may only use this file for private study, scholarship, or research. #
#------------------------------------------------------------------------------#

The Wind Cries Mary

Jimi Hendrix

by Brian S
[ Tab from: http://www.guitartabs.cc/tabs/h/hendrix_jimi/the_wind_cries_mary_tab.html ]
Section 1 :
e---------------------------------------------------|
b---------------------------------------------------|
g-----------------------8------9------10------------|
d--6h8~--7h9~--8h10~~~--8------9------10------------|
a--6-----7-----8--------8h10~--9h11~--10h12~~~------|
e--6-----7-----8------------------------------(12/)-|
                                              ghost note
Section 2 :
e-----------------------------------------------|
b-----------------------------------------------|
g-----------------------------------------------|
d-----10^12-10----------------------------------|
a--12----------12~~/----------------------------| 
e-----------------------------------------------|
 
Section 3 : 
  Cmaj         Bbmaj      Fmaj7      Gmaj
e-----------------------------------------------|
b-8---8--------6------6---1--1-----------3---3--|
g-9---9---9----7---7--7---2--2--2----4---4---4--|
d-10--10--8----8---8--x---3--3--3----5---5---5--|
a-----------------------------------------------|
e-8-------8----6------6---1-----1----3---3------|


Section 4 :
e-----------------------------------------------|
b-----------------------------------------------|
g-----------------------8------9------10--------|
d--6-----7-----8--------8------9------10--------|
a--6h8~--7h9~--8h10~~~--8h10~--9h11~--10h12~~~--|
e--6-----7-----8--------------------------------|

Comments