Hendrix Jimi - Purple Haze Chords & Tabs

 

Purple Haze Chords & Tabs

Hendrix Jimi Chords & Tabs

Version: 3 Type: Tab 3 ratings
1 star 2 stars 3 stars 4 stars 5 stars
comments

Purple Haze Tab




Artist:jimi hendrix
song:Purple Haze
Album:Are You Expierinced
[ Tab from: http://www.guitartabs.cc/tabs/h/hendrix_jimi/purple_haze_tab_ver_3.html ]
                   intro
1:---------------------------------------------------
2:---------------------------------------------------
3:---------------------------------12----------------
4:-----8-------8-------8-------12--------------------
5:-------------------------13-----------12---9-------
6:-6-------6-------6----------------------------9-11-


1:------------------------------------------------
2:------------------------------------------------
3:------------------------------------------------
4:-9----------------------------------------------
5:-7----5-------7---------------------------------
6:------3-------5---------------------------------
Comments