Hendrix Jimi - Purpl Haze Correct Chords & Tabs

 

Purpl Haze Correct Chords & Tabs

Hendrix Jimi Chords & Tabs

Version: 1 Type: Tab 1 rating
1 star 2 stars 3 stars 4 stars 5 stars
comments

Purpl Haze Correct Tab

this is my first tabs so here....


  intro                                                                         1/4 bend
e-----------------------------------------------------------------------------------------------
b-------------------9---------------------------8-----------------------------------------------
g-----------------7---------------------------7-------------------------------------------------
d---------------9------7--4/5-0-------------9------7--5/--0-----------------5-7^-5--5-----------
a--8--8--8--8------------------------5/7-------------------------5/7----5/7-----------0---------
e-6--6--6--6----------------------0--------------------------0--------------------------0-3-----

          1/4 bend
e-----------------------------------------------------------------------------------------------
b-----------------------------------------------------------------------------------------------
g-----------------------7-7-9-------------------------------------------------------------------
d--------5-7^-5h7-5-0-9-------------------------------------------------------------------------
a-0-5/7-----------------------------------------------------------------------------------------
e--------------------------------15\-0----------------------------------------------------------

           this is how i play it but an easier version is under here  
verse                                  play 5 times                                     
e--x-x-x-x--x-x-x--x-x-x------------------------------------------------------------------------
b--9-9-x-9--x-x-x--x-x-x------------8---8-------------9-9-x-9---------------------------8----8--
g--7-7-x-7--x-x-x--x-x-x---9/11---7----7--------------7-7-x-7-----------------9/11----7-----7---
d--6-6-x-6--5-5-5--7-7-7---x/x---9----9---------------6-6-x-6--7-7-7--7-7-7---x/x----9-----9----
a--7-7-x-7--x-x-x--x-x-x---7/9------------------------7-7-x-7--x-x-x--x-x-x---7/9---------------
e--x-x-x-x--3-3-3--5-5-5---------------------------------------3-3-3--5-5-5---------------------

[ Tab from: http://www.guitartabs.cc/tabs/h/hendrix_jimi/purpl_haze_correct_tab.html ]
after you play ^above 5 times play it 3 more times then solo
     both 1/4 bends                                                     full bend
e----------------------------------------------------------------------------------------------
b-----12^-------12^-------15------15-----------------------------------------------------------
g----9-------9---------12-------12-----16h18-16h18-16h18-14-14h16p14-13-14^-----12-14-12----12-
d-11------11---------14-------14---------------------------------------------14----------14----
a----------------------------------------------------------------------------------------------
e----------------------------------------------------------------------------------------------

e----------------------------------------------------------------------------------------------
b----------------------------------------------------------------------------------------------
g-11/12-11-------------------------------------------------------------------------------------
d-----------14-12-12-14-12-11-12----------14-16---14h16p14/12--14h16-12--16-12-16-12-16-12-----
a-----------------------------------14h16------------------------------------------------------
e----------------------------------------------------------------------------------------------

                                                                 both are full bends
e----------------15--12h14p12------12----------------------------------------------------------
b------------------------------15------14h15p14-14-12h14-12h14p12------15----------------------
g--------11-12-----------------------------------------------------14^----14^\-----------------
d-12-14----------------------------------------------------------------------------------------
a----------------------------------------------------------------------------------------------
e----------------------------------------------------------------------------------------------

then play verse again 

outro

e---------------------------------------------------------------------------------------------
b---------------------12-14-15-12h14p12---------15^15^15^15^15^15^15^15^15^15^15^15^15^15^15^-
g------12-------12----------------------14-12-------------------------------------------------
d----12-------9-------------------------------------------------------------------------------
a-14--------11--------------------------------------------------------------------------------
e---------------------------------------------------------------------------------------------

e--------------------------------------------------------------------------------------------
b-15^15^15^15^15^15^15^15^15^15^15^15^15^15^15^15^15^15^15^15^15^15^15^15^15^15^15^15^15^15^-
g--------------------------------------------------------------------------------------------
d--------------------------------------------------------------------------------------------
a--------------------------------------------------------------------------------------------
e--------------------------------------------------------------------------------------------

Then fade out there ya go




Comments