Hendrix Jimi - Little Wing Chords & Tabs

 

Little Wing Chords & Tabs

Hendrix Jimi Chords & Tabs

Version: 4 Type: Tab 0 ratings
1 star 2 stars 3 stars 4 stars 5 stars
comments

Little Wing Tab

   
#----------------------------------PLEASE NOTE---------------------------------#
#This file is the author's own work and represents their interpretation of the #
#song. You may only use this file for private study, scholarship, or research. #
#------------------------------------------------------------------------------##


Little Wing  
Jimi Hendrix 
H=hammer-on 
P= Pull off 
^bend
v=bend down
PB= prebend
Tabbed by: Ibanez72@aol.com

E -----12/---------x--x--  --------------------------
B -----12/---------x--x--  --------------------------
G -----12/---------x--x--  ----------------5h7---------- 
D --x--------------x--x--  ------5------5--5----------
A --x--------------x--x--  ---------5h7----------------
E --x---------0----x--x--  -5h7-----------------3----------

E -3h5p3------------------------  --------------------------------
B -3-----3------3--3--3----3----  ------------------5-------------
G -0-------0----5--5--4h5--4----  ------------------5h7p5--------- 
D ----------------------------5-  -----------5-------------7-------
A ------------------------------  ----5--7------7-----------------
E ------------------------------  -/5-----------------------------

E ------------------3h5p3----------------------------------
B ------------------3-----3---------------------------------
G ------------------0-------0--------------7--7--7-----------
D -5-------------------------------7---7---7--9--7---7---7--
A -5h7p5---------------------------7---10------------10--7--
E -------7/-----0-------------------------------------------

E ----9--10-9-----------------------------------------------------
B ----7--------10--7----------------------------------------------
G ----7---------------7-------6----5-----5--5--5----------5--5--5-----
D ----------------------------8----7-----9--7--5---5--5---5--7--5-----
A -------------------------------------------------8--7-------------
E -7------------------------6----5-------------------------------

E ------------5--/--7---5----5----3---3----------3-3-----
B ------------3--/--5---3----3----1---1----1-1---2-2---------
G ------------0--/--0---0----0----0---0----2-2---3-3--------- 
D ------------5--/--7---5----5----3---3----0-0---------------
A ------------------------------------------3-3-------------
E --5/7---3-----------------------------------------------
[ Tab from: http://www.guitartabs.cc/tabs/h/hendrix_jimi/little_wing_tab_ver_4.html ]
E --------------------------------------------
B ---------------------------------------------
G ---7-----7-7----------------DRUM FILL--------------------- 
D ---7h9---7-7----7--7--7---------------------------------
A ---------------10--7--7h9---------------------------
E ----------------------------------------------

  chorus   
E ----------------3---------------------------------------
B ----------------3--------------1----------------------------
G --0-------------0--------------2-repeat(x4)-0-------------- 
D --2-------------0-repeat(x4)---2------------2----------------
A --2-repeat(x4)--2---------------------------2--repeat(x4)--
E ----------------3-------------------------------------------

E --2----------------------------3--3----------------2-2----------
B --3--------------1-------------3--3----------1-1---3-3----repeat(x6)
G --4--------------2-repeat(x4)--0--0---2--2---0-0---2-2------------
D --4-repeat(x4)---2-------------0--0---3--3---2-2-----------------
A --2----------------------------2--2---3--3---3-3-----------------
E -------------------------------3--3---1--1-----------------------

solo
E ---------------------------------12-------------------------
B ---15^---15^-15--12--12h15-----------15--------12--15---------
G ---------------------------14^-----------12------------14^v-- 
D -------------------------------------------------------------
A -------------------------------------------------------------
E -------------------------------------------------------------

E --------------------------------------------------------------
B ---------------------------------12--15--15^v---12h13--12h13----
G -12--14---14^v^v^--PB14v-p12------------------------------------ 
D -----------------------------14--------------------------------
A --------------------------------------------------------------
E --------------------------------------------------------------

E --------------------------------15--15-----15-----
B -12h13p12----15^-15^v-p12-------------------------
G ----------12----------------14^--------14^-------
D -----------------------------------------------
A ----------------------------------------------
E ----------------------------------------------

E ------13--13------13-------------------------------------------
B ----------------------------------------------------------------
G -12^----------12^-----10h12p109------7h9--7-7----------------- 
D -------------------------------------7h9--7-7---7--7---7h9-----
A ------------------------------------------------10-7---7h9----
E --------------------------------------------------------------


Questions Or commments, email Ibanez72@aol.com
Comments