Hendrix Jimi - Little Wing Chords & Tabs

 

Little Wing Chords & Tabs

Hendrix Jimi Chords & Tabs

Version: 2 Type: Tab 1 rating
1 star 2 stars 3 stars 4 stars 5 stars
comments

Little Wing Tab

Little Wing   Jimi Hendrix

Here's the whole of little wing, a guitar masterpiece. 
Tune your guitar down a half step if you want to play a long.


My Rig:
Squire Telecaster
Marshall 50 watt amp
Morley wah wah

My Favourite Bands:
Primus
Clutch
No Doubt

My Favourite guitar websites:
http://www.tabclawer.com    - good tab site
http://www.nodoubt.com   - no doubt's official site
http://www.guitarandbass.co.uk   - brilliant guitar lesson site

                                                       
D#||--------------x-12/--|----------------------------|
A#||--------------x-12/--|-------x-x---------------5/-|
F#||--------------x------|-------x-x-------0-----5-5/-|
C#||---------------------|-------x-x---------5---5-7/-|
G#||---------------------|-------x-x---0h2---5h7------|
D#||----------------12/--|--0-------------------------|


                                  
--------3h5h3-3------------------|
--------3-----3---3---3-3--------|
-----0----------0-4h5-5-4-5-4----|
------------------------------5--|
---------------------------------|
--3------------------------------|


                                     
------------------------------------|
---------------5---5----------------|
-----------5---5h7-5----------------|
---------------------5h7-5---5------|
-------5-7---7-----------5h7--------|
--5----------------------------5h7/-|


                                       
--------------------------------------|
--------8h10h8------------------------|
--------7------7--------7-7---7-7--7--|
-----------------9---7--7-7h9-7-7--7--|
-----7-----------7-7-10---------10-7--|
--0-----------------------------------|


                                                                   
--------9--10-9---7--7-------------|------------------------------|
--------7--10-7-7h10-7-7-----------|------------------------------|
-----7-----7--7--------7-------7---|-----5--5-5-5------5-5-5------|
-----9-----------------9-------8/7-|-----7--9-7-5-5-5--5-7-5------|
-----------------------------8-----|--------------8-7-------------|
--7----------------------7-6-------|--5----------------------5h7/-|


                                                      
--------5/7-5---5/1-------------|--------------------|
--------3/5-3---3/3-1---1-------|----------1-3h1---0-|
-----0----------0-0-0---0---0---|------2-2---2-------|
-----5--5/7-5---5/3-----3---3---|------2-2-----------|
------------------------3---3---|--0h3-----------3---|
--3-----------0-------1---1---1-|--------------------|


                                                      
-------------------------------|-----------------12/-|
----------------7---7-7--------|---------------------|
--------------7-7---7-7-7---7--|--7------------------|
------7---7---7-7h9-7-7-7---7--|--7------------------|
--5-----5---5-----------10--7--|--9------------------|
-------------------------------|-----------------12/-|


                                               
----------------------------------------------|
-------0--------------------------------------|
----------------------------------------------|
-------2h0h2h0------2---2-0h2h0-0h2h0-0-------|
----------------2-----------------------0h2h0-|
--0---------------0---0-----------------------|


                                                              
----------------------------|--------------------------------|
---------------3-3-2---3----|--------------------------------|
-----------2---2-4-3---2----|-----------5-5-5--------5-------|
-------------5-------5-5----|-----------9-7-5--5---5h7h5h7h5-|
----------------------------|------------------5h7-----------|
--3--3---3------------------|--5-----------------------------|


                                                                    
-----------------------------|-------7-9-7-------------------------|
-------10h8---------8--------|-------------10-7-7------------6-----|
-------7--------------7------|------------------7-9h7--------8h7---|
------------9-----------7----|------------------------9-8--8-----8-|
--------------7-----------10-|-------------------------------------|
--0--------------------------|--7----------------------------------|


                                                             
------------------------------|-------3------3--3-----------|
------------------------------|-------3------1--1-----------|
-----5----5-5----5------------|-------5-4---------0---------|
--7--7--9-7-5--5-5-5-5-5----5-|---------4-5/--------3----3--|
---------------8---8-7-8--7h8-|-----------------------------|
------------------------------|--3--------3/-----------1-1--|


                                                                
-------------|---------------------------|--2-------------x-x--|
---------1---|-----3--3---3--------------|--3-------------x-x--|
-------------|-----2----2--------2----2--|--2-------------x-x--|
----2--------|--0------------0-----0--0--|--0-------------x-x--|
--0h3--------|---------------------------|----------------x-x--|
----3--------|---------------------------|----------------x-x--|

[ Tab from: http://www.guitartabs.cc/tabs/h/hendrix_jimi/little_wing_tab_ver_2.html ]
                                                                     
-----------0-----0--------------------|-----------------------------|
-----------12h14-12----0--0-----------|-------3/5/3/5-3/5/3---3-----|
--------------------14-12-0-----------|-------2/4/2/4-2/4/2---2-----|
--------------------------14-12----12/|-----------------------------|
--------------------------------12h14/|-----------------------------|
--0-----------------------------------|--3----------------------3-5-|


                                                               
--------------------------|-----------------------------------|
--------------------------|-------8h10h8----------------------|
--------------------------|---------7-------------------------|
-----------------5-5------|---------9----9-9-------9--7-7h9-9-|
---------------5-7-5------|------------------7--7-------------|
--5--------5-8-5-----5-7/-|--0--------------------------------|


                                                                    
---------9-10-9-7-------------|--5---------------------------------|
---------7-7----7----------6--|--5h7h5------5----------------------|
------------------7--------7--|--------7--5-5-5-5------5--5--------|
---------------------------8--|-----------7---7-5--5---5--5-5-5----|
--------------------9----8----|--------------------5h7----8-7-5h7/-|
--7-------------------6-------|------------------------------------|


                                                    
-------------5/7-5/-3------------|-----------------|
-----0-------3/5-3/-1------------|-----------------|
-----0h2---------0--0------------|-----------------|
----------3--5/7-5/-3------------|--5----5----5-5--|
---------------------------------|--3------3----3--|
--3-------5--------------1-1h3/5-|-----------------|


                                                       
------------------------------|---12------------------|
------------------------------|---12------------------|
--7----7-7--7--7-7--7--7-7----|---12------------------|
--7----7-7--7--7-7--7--7-7----|---12------------------|
--5----5-5--5--5-5--5--5-5----|-----------------------|
------------------------------|------------------15/0-|


                                                          
----------------------------|----------------------------|
--15b-------15r---12--12h15-|--12------15r-----------15--|
----------------------------|--------------12----14b-----|
----------------------------|----------------------------|
----------------------------|----------------------------|
----------------------------|----------------------------|


                                                                      
------------------------------|--------------------------------------|
------------------------------|--------------------------------------|
--14r-------12-14r--14r----12-|--------12-14b-12-14----12-14-12/14~--|
---------14-------------------|--14-----------------14---------------|
------------------------------|--------------------------------------|
------------------------------|--------------------------------------|


                                 
--------------------------------|
--------------------------------|
--12/14~--14/16~--14/12~--14r---|
--------------------------------|
--------------------------------|
--------------------------------|


                                        
---------------------------------------|
--12h13h12-13h12-13h12-----15r-----12--|
-----------------------12--------------|
---------------------------------------|
---------------------------------------|
---------------------------------------|


                                                                
------15-15-----15----13----------------|----------------------|
-------------------------13-----10---13-|--8---------8---------|
--14b-------14b----12-------12--12r--12-|--7h9h7-----7h9h7-----|
----------------------------------------|--------10--------10--|
----------------------------------------|----------------------|
----------------------------------------|----------------------|


                                                                   
-------------------------------------------|-----12---------------|
----------10----10-------10------10--------|-----12---------------|
----------9-----11h12h11-11h9----9---------|-----12---------------|
--12---12----12---------------12-------12--|--12-12---------------|
-------------------------------------------|----------------------|
-------------------------------------------|----------------------|


                                 
--------------------------------|
--15b---15b---15b-15------------|
----------------------14b-14h12-|
--------------------------------|
--------------------------------|
--------------------------------|


                                         
-------15-15---15----15----15----15-----|
----------------------------------------|
--12b-------------14b---14b---14b---14b-|
----------------------------------------|
----------------------------------------|
----------------------------------------|


                                       
--------------------------------------|
--------------------------------------|
--14r--12-14----12----14r----12h14h12-|
-------------14----14-----------------|
--------------------------------------|
--------------------------------------|


                                                      
----------------------------------------------------||
----------------------------------------------------||
-----------------12--12-----12-12--12-----12--------||
--14---12--------12--12-14--12-12--12-----12-14--14-||
----------14--14----------------------14------------||
----------------------------------------------------||


Comments