Hendrix Jimi - Foxy Lady Chords & Tabs

 

Foxy Lady Chords & Tabs

Hendrix Jimi Chords & Tabs

Version: 3 Type: Tab 0 ratings
1 star 2 stars 3 stars 4 stars 5 stars
comments

Foxy Lady Tab

   
Tabbed by bum
Album are you Experienced?
Copyright © 1967 1968 1980 by EXPEIRENCE HENDRIX, L.L.C.

------------------------------------------------------------
------------------------------------------------------------

Foxy Lady - Hendrix


intro on g string rapidly shake either 11 or 16 while rising the volume
and slide down to this:
verses
E:-----5-------5-5-----5-5----------|
B:-----5-------5-5-----5-5----------|
G:----------------------------------|
D:--------4-4-----------------------|
A:---------------------------0-2-3-4|
E:2-2--------------2-2--------------|
chorus

just F# 7x's and E 3x's 
then u could add three fills of your choice 


Foxy Lady Solo

E:--------------------------------------------------------------------
B:14-----14----------17b--17------------------------------------------
G:---14-----14----------------14\-------------------------------------
D:--------------16----------------/15-16---14-12-----------14-16b-16b-
A:-----------------------------------------------12-----16------------
E:---------------------------------------------------14---------------
[ Tab from: http://www.guitartabs.cc/tabs/h/hendrix_jimi/foxy_lady_tab_ver_3.html ]
E:----------------------------------14----14----14-----14-17b--17-14---
B:-------------------------------14----17----17-----14---------------17
G:---------------------------16b---------------------------------------
D:16--16-p14-h16-p14----14---------------------------------------------
A:-------------------16------------------------------------------------
E:---------------------------------------------------------------------

E:-14-16-14---------------------------------------------------------14
B:----------14------14-17-14---14-17-14---14-17-14---14--14-17b--17---
G:-------------16b--------16b--------16b--------16b--16b--------------
D:--------------------------------------------------------------------
A:--------------------------------------------------------------------
E:--------------------------------------------------------------------

E:----14------14-----------------------------------------------|
B:-17----14---14-----------------------------------------------|
G:-------16b-----16-p14----14----------------------------------|
D:----------------------16-----16-p14----14--------------------|
A:------------------------------------16-----16-p14----14--14b-|
E:--------------------------------------------------16---------|
Comments