Hendrix Jimi - Foxy Lady Chords & Tabs

 

Foxy Lady Chords & Tabs

Hendrix Jimi Chords & Tabs

Version: 1 Type: Tab 5 ratings
1 star 2 stars 3 stars 4 stars 5 stars
comments

Foxy Lady Tab

#----------------------------------PLEASE NOTE--------------------------------#
#This file is the author's own work and represents their interpretation of the#
#song. You may only use this file for private study, scholarship, or research.#
#-----------------------------------------------------------------------------#
#-- File created with Instab - http://www.pconline.com/~smcarey/instab.html --#
#-----------------------------------------------------------------------------#

Author/Artist: Jimi Hendrix
Title: Foxey Lady
Transcribed by: Jason
Email: fishbok@aol.com

-|-------------------|--------------------------------------------------------
-|-------------------|--------------------------------------------------------
-|--16vvvvvv---------|--------------------------------------------------------
-|-------------------|--------------------------------------------------------
-|-------------------|--------------------------------------------------------
-|--------------16\2-|--------------------------------------------------------
    8 seconds of vibrato                                                      

-----5----5-----5--------|----5-----5-----5--------|----5-----5-----5---------
-----5----5-----5--------|----5-----5-----5--------|----5-----5-----5---------
-------------------------|-------------------------|--------------------------
-4-4---44---4-4----------|4-4---4-4---4-4----------|4-4---4-4---4-4-----------
-4-4--------4-4---0-2-3-4|4-4---------4-4---0-2-3-4|4-4---------4-4--0-2-3-4--
-2-2--------2-2----------|2-2---------2-2----------|2-2---------2-2-----------
                                                                              

-----5-----5-----5-------|----5-----5-----5-------|---5-----5-----5--------|--
-----5-----5-----5-------|----5-----5-----5-------|---5-----5-----5--------|--
-------------------------|------------------------|------------------------|--
-4-4---4-4---4-4---------|4-4---4-4---4-4---------|4-4--4-4---4-4----------|--
-4-4---------4-4--0-2-3-4|4-4---------4-4--0-2-3-4|4-4--------4-4--0-2-3-4-|--
-2-2---------2-2---------|2-2---------2-2---------|2-2--------2-2----------|--
                                                                              

-2-2-2-2|0-------------|2-2-2-2|0------------|2-2-2-2|0-0-------------|2--|---
-2-2-2-2|0-------------|2-2-2-2|0------------|2-2-2-2|0-0-------------|2--|---
-3-3-3-3|1-2/7-7-9-7---|3-3-3-3|1-3b-4-2-3---|3-3-3-3|1-1-------------|3--|---
-4-4-4-4|2-2/7-------9-|4-4-4-4|2----------4-|4-4-4-4|2-2------0-2-0--|4--|---
-4-4-4-4|2-------------|4-4-4-4|2------------|4-4-4-4|2-2--0h2-------2|4--|---
-2-2-2-2|0-------------|2-2-2-2|0------------|2-2-2-2|0-0-------------|2--|---
                                                                       cut    

-------|----------|----5-----5-----5--------|----5-----5-----5--------|-------
-14----|14--------|----5-----5-----5--------|----5-----5-----5--------|-------
----14v|---14v----|-------------------------|-------------------------|-------
-------|-------16v|4-4---4-4---4-4----------|4-4---4-4---4-4----------|-------
-------|----------|4-4---------4-4---0-2-3-4|4-4---------4-4---0-2-3-4|-------
-------|----------|2-2---------2-2----------|2-2---------2-2----------|-------
                                                                              

-----5-----5-----5--------|----5-----5-----5--------|----5----5----5-------|--
-----5-----5-----5--------|----5-----5-----5--------|----5----5----5-------|--
--------------------------|-------------------------|----------------------|--
-4-4---4-4---4-4----------|4-4---4-4---4-4----------|4-4---44---4-4--------|--
-4-4---------4-4---0-2-3-4|4-4---------4-4---0-2-3-4|4-4--------4-4-0-2-3-4|--
-2-2---------2-2----------|2-2---------2-2----------|2-2--------2-2--------|--
                                                                              
[ Tab from: http://www.guitartabs.cc/tabs/h/hendrix_jimi/foxy_lady_tab.html ]
-----5-----5-----5--------|2-2-2-2|0----------|2-2-2-2|0-----------|2-2-2-2|--
-----5-----5-----5--------|2-2-2-2|0----------|2-2-2-2|0-----------|2-2-2-2|--
--------------------------|3-3-3-3|1-7-9-7----|3-3-3-3|1-3b-4-2-3--|3-3-3-3|--
-4-4---4-4---4-4----------|4-4-4-4|2-------9p7|4-4-4-4|2----------4|4-4-4-4|--
-4-4---------4-4---0-2-3-4|4-4-4-4|2----------|4-4-4-4|2-----------|4-4-4-4|--
-2-2---------2-2----------|2-2-2-2|0----------|2-2-2-2|0-----------|2-2-2-2|--
                                                                              

-0-0------------|2--|------|-----------|12vv-12-------------------------------
-0-0------------|2--|14----|-14--------|--------10----------------------------
-1-1------------|3--|---14v|----14v----|-----------9/11vv--9\2vv-------9-11v--
-2-2-----0-2-0--|4--|------|--------16v|--------------------------9h11--------
-2-2-0h2-------2|4--|------|-----------|--------------------------------------
-0-0------------|2--|------|-----------|--------------------------------------
                cut                      solo                                 

----------------9-12v-9-17v-12v----9h12----9h12----9h12-----------------------
-------------12-----------------12------12------12------12v-12p10----12p10----
-11p9----11v------------------------------------------------------12-------12-
------11----------------------------------------------------------------------
------------------------------------------------------------------------------
------------------------------------------------------------------------------
                                                                              

----------12vv|2-2-2-2|0-0----------|2-2-2-2|0-----------|2-2-2-2|0-0---------
-12p10--------|2-2-2-2|0-0----------|2-2-2-2|0-----------|2-2-2-2|0-0---------
-------12-----|3-3-3-3|1-1-7-9-7----|3-3-3-3|1-3b-4-2-3--|3-3-3-3|1-1---------
--------------|4-4-4-4|2-2-------9p7|4-4-4-4|2----------4|4-4-4-4|2-2-----0-2-
--------------|4-4-4-4|2-2----------|4-4-4-4|2-----------|4-4-4-4|2-2-0h2-----
--------------|2-2-2-2|0-0----------|2-2-2-2|0-----------|2-2-2-2|0-0---------
                                                                              

----|2--|----------------------|----5-----5-----5--------|----5-----5-----5---
----|2--|----------------------|----5-----5-----5--------|----5-----5-----5---
----|3--|-16vvvvvv-------------|-------------------------|--------------------
-0--|4--|----------------------|4-4---4-4---4-4----------|4-4---4-4---4-4-----
---2|4--|----------------------|4-4---------4-4---0-2-3-4|4-4---------4-4-----
----|2--|----------------------|2-2---------2-2----------|2-2---------2-2-----
    cut  8 seconds no feed back                                               

--------|----5-----5-----5--------|----5-----5-----5--------|----5-----5------
--------|----5-----5-----5--------|----5-----5-----5--------|----5-----5------
--------|-------------------------|-------------------------|-----------------
--------|4-4---4-4---4-4----------|4-4---4-4---4-4----------|4-4---4-4---4-4--
-0-2-3-4|4-4---------4-4---0-2-3-4|4-4---------4-4---0-2-3-4|4-4---------4-4--
--------|2-2---------2-2----------|2-2---------2-2----------|2-2---------2-2--
                                                                              

-5--------|----5-----5-----5--------|----5-----5-----5--------|----5-----5----
-5--------|----5-----5-----5--------|----5-----5-----5--------|----5-----5----
----------|-------------------------|-------------------------|---------------
----------|4-4---4-4---4-4----------|4-4---4-4---4-4----------|4-4---4-4------
---0-2-3-4|4-4---------4-4---0-2-3-4|4-4---------4-4---0-2-3-4|4-4------------
----------|2-2---------2-2----------|2-2---------2-2----------|2-2------------
                                                                              

-----5--------|----|----------------------------------------------------------
-----5--------|----|----------------------------------------------------------
--------------|----|----------------------------------------------------------
-4-4----------|----|----------------------------------------------------------
-4-4---0-2-3-4|4/21|----------------------------------------------------------
-2-2----------|----|----------------------------------------------------------
              slow to moderate speed slide                                    

Comments