Hendrix Jimi - Fire Chords & Tabs

 

Fire Chords & Tabs

Hendrix Jimi Chords & Tabs

Version: 3 Type: Tab 2 ratings
1 star 2 stars 3 stars 4 stars 5 stars
comments

Fire Tab

   
FIRE
As recorded by The Jimi Hendrix Experience
(From the 1967 Album ARE YOU EXPERIENCED ?)

Gtr I (E A D G B E) - 'Jimi clean electric'

Intro
  Q=156
 4/4
  Gtr I
   Q     Q   Q  Q   E  E    E  Q.   Q   Q
|-----|------------------|-----------------|
|-----|------------------|-----------------|
|-13--|-12\--------10s12-|-------------13--|
|-----|------------------|-12-12\----------|
|-11--|-10\---------8s10-|-------------11--|
|-----|------------------|-10-10\----------|
      |-Rhy Fig 1

   Q   Q  Q   E  E    E  Q.   E  E  E  E      q  Q  H      H    E  E  E  E
|------------------|---------------------||--------------|------------------||
|------------------|---------------------||o-------------|-----------------o||
|-12\--------10s12-|---------------------||--------------|------------------||
|------------------|-12-12\--------10-12-||--12----------|-----------10-12--||
|-10\---------8s10-|------------12-------||o-------------|--------12-------o||
|------------------|-10-10\--------------||--------------|------------------||
                                                               end Rhy Fig 2-|
                                                               includes repeat
   Verse
    $
     q  Q  H      H    E  E  E  E    q  Q  H      H    E  E  E  E
||--------------|-----------------|-------------|------------------|
||o-------------|-----------------|-------------|------------------|
||--------------|-----------------|-------------|------------------|
||--12----------|-----------10-12-|-12----------|-----------10-12--|
||o-------------|--------12-------|-------------|--------12--------|
||--------------|-----------------|-------------|------------------|


   q  Q  H      H    E  E  E  E    q  Q  H
|-------------|-----------------|-------------|
|-------------|-----------------|-------------|
|-------------|-----------------|-------------|
|-12----------|-----------10-12-|-12----------|
|-------------|--------12-------|-------------|
|-------------|-----------------|-------------|


   S      +E.  +Q     E  E  S  S  E
|------------------------------------||
|-13-----(13)-(13)-------------------||
|-12b14==(14)-(14)-------------------||
|-----------------------12-14p12-----||
|-------------------/14----------14--||
|------------------------------------||


 Chorus
   Q   Q   E  E E  E    +H       E  E  E E    Q   Q   E  E E  E
|-----10--12-10---10-|-(10)----------------|-----10--12-10---10-|
|-----10--10-10----8-|--(8)----------------|-----10--10-10----8-|
|-----11--11-11----9-|--(9)----------------|-----11--11-11----9-|
|-----12----------10-|-(10)--------10-12---|-----12----------10-|
|--------------------|---------/12---------|--------------------|
|-10-----------------|-------------------8s|=10-----------------|


   +H       E  E  E E    Q   Q   E  E E  E    +H      S  S  E  E  E
|-(10)----------------|-----10--12-10---10-|-(10)--------------------|
|--(8)----------------|-----10--10-10----8-|--(8)--------------------|
|--(9)----------------|-----11--11-11----9-|--(9)----------10--------|
|-(10)--------10-12---|-----12----------10-|-(10)----10h12-----------|
|---------/12---------|--------------------|------------------10-11--|
|-------------------8s|=10-----------------|-------------------------|


                      1.
              To Coda
   Q   Q   E  E E  E    +H       E  E  E  E    q  Q  H
|-----10--12-10---10-|-(10)-----------------|-------------|
|-----10--10-10----8-|--(8)-----------------|-------------|
|-----11--11-11----9-|--(9)-----------------|-------------|
|-----12----------10-|-(10)--------10-12-12-|-12----------|
|-12-----------------|---------/12----------|-------------|
|--------------------|----------------------|-10----------|


  H    E  E  E  E    q  Q  H      H    E  E  E  E
|-----------------|-------------|------------------||
|-----------------|-------------|-----------------o||
|-----------------|-------------|------------------||
|-----------10-12-|-12----------|-----------10-12--||
|--------12-------|-------------|--------12-------o||
|-----------------|-------------|------------------||


                      Bridge
  2.
    Q    Q   E E q      W           +W
|-(10)--10-------8--||-----------|---------|
|--(8)---8-----8----||-----------|---------|
|--(9)---9---9------||-----------|---------|
|-(10)--10--10------||-----------|---------|
|-------------------||-12--------|-(12)----|
|-------------------||-10--------|-(10)----|


   W           +H      +Q.   E   W
|-----------|------------------|----------|
|-----------|------------------|----------|
|-----------|------------------|-6--------|
|-----------|------------------|-7--------|
|-10--------|-(10)----(10)---7-|-7--------|
|--8--------|--(8)-----(8)---5-|-5--------|


  +H     +Q.   E    W           +H.        Q
|----------------|-----------|-----------------||
|----------------|-----------|-----------------||
|-(6)----(6)-----|-----------|-----------------||
|-(7)----(7)-----|-10--------|-(10)------------||
|-(7)----(7)-----|-10--------|-(10)------/14---||
|-(5)----(5)---0-|--8--------|--(8)------------||


 Guitar Solo
                                                     ~~
   S      +E.  +Q    A      +E   A      +Q    +E     W
|-------------------------------------------------|-----------|
|-15b17==(15)-(15)--15b17==(15)-15b17==(15)r=(15)-|-----------|
|-------------------------------------------------|-12--------|
|-------------------------------------------------|-----------|
|-------------------------------------------------|-----------|
|-------------------------------------------------|-----------|

[ Tab from: http://www.guitartabs.cc/tabs/h/hendrix_jimi/fire_tab_ver_3.html ]
           ~~~~                               ~~~~~~~~~~
   a      +Q.   E  a      +E   Q   S  a      +S     +H.       +S   +S  E
|------------------------------------------------|------------------------|
|-15b17==(15)-----15b17==(15)-15--12-------------|------------------------|
|------------------------------------14b16==(14)-|-(14)------(14)r(14)----|
|------------------------------------------------|------------------------|
|------------------------------------------------|------------------------|
|------------------------------------------------|------------------------|


           ~~~~~~~~                          ~~~~~~~~~~~
   S      +E.  +Q    A      +E   Q   A      +E     +H.       +Q
|-----------------------------------------------|------------------|
|-15b17==(15)-(15)--15b17==(15)-15--------------|------------------|
|-----------------------------------14b16==(14)-|-(14)r=====(14)\--|
|-----------------------------------------------|------------------|
|-----------------------------------------------|------------------|
|-----------------------------------------------|------------------|


           ~~~~~~~~                                        ~~~
                             |-----------3-----------|
   S      +E.  +Q    a      +Q   a      +Q   a      +Q     H.      Q
|-------------------------------------------------------|---------------||
|-15b17==(15)-(15)--15pb17r(15)-------------------------|---------------||
|-------------------------------14b16==(14)-14b16==(14)-|-12------------||
|-------------------------------------------------------|---------------||
|-------------------------------------------------------|---------------||
|-------------------------------------------------------|---------------||


Rhy Fig 1 - D.S. al Coda


                                  Outro - Solo
  &
    Q    E  E  S  S  S  S  E  E     Q   Q   E  Q  E
|-(10)--10-10-------------------||-----12--13-12----|
|--(8)---8--8-------------------||-----12--12-12----|
|--(9)--------------------------||-----13--13-13----|
|-(10)--------------12h14-12----||-----14-----------|
|-------------12h14----------14-||------------------|
|-------------------------------||-12---------------|


  |----------3-----------|           |-----------3-----------|
  Q  a      +Q   a      +Q   a      +Q   a      +Q   a      +Q
|---------------------------------------------------------------|
|---15b17==(17)-15b17==(17)-15b17==(17)-15b17==(17)-15b17==(17)-|
|---------------------------------------------------------------|
|---------------------------------------------------------------|
|---------------------------------------------------------------|
|---------------------------------------------------------------|


           ~~~~
   A      +W
|--------------------|
|-15b17==(17)--------|
|--------------------|
|--------------------|
|--------------------|
|--------------------|


                                                                    ~~~~
  |----------3-----------|           |-----------3-----------|
  Q  a      +Q   a      +Q   a      +Q   a      +Q   a      +Q     +W
|---------------------------------------------------------------|---------|
|---15b17==(17)-15b17==(17)-15b17==(17)-15b17==(17)-15b17==(17)r|=(15)----|
|---------------------------------------------------------------|---------|
|---------------------------------------------------------------|---------|
|---------------------------------------------------------------|---------|
|---------------------------------------------------------------|---------|


                             ~~~~
  |--3--|  |----3-----|
  Q  Q  Q  Q  Q      +Q     +W
|------------------------|-------------|
|---15-15-15-15b17==(17)r|=(15)--------|
|------------------------|-------------|
|------------------------|-------------|
|------------------------|-------------|
|------------------------|-------------|


  |------3-------|          |------3-------|
  Q  a      +Q   Q  a      +Q   Q  a      +Q
|---------------------------------------------|
|---15b17==(17)-15-15b17==(17)-15-15b17==(17)-|
|---------------------------------------------|
|---------------------------------------------|
|---------------------------------------------|
|---------------------------------------------|


           ~~~~                                                         ~~
                       |------3-------|
   A      +W           Q  A      +Q   Q  A      +E   E      +E   +E     W
|--------------------|-----------------------------------------------|-------|
|-15b17==(17)--------|---15b17==(17)-15-15b17==(17)-15b17==(17)r(15)-|-------|
|--------------------|-----------------------------------------------|-12----|
|--------------------|-----------------------------------------------|-------|
|--------------------|-----------------------------------------------|-------|
|--------------------|-----------------------------------------------|-------|


  |----------3-----------|           |-----------3-----------|
  Q  a      +Q   a      +Q   a      +Q   a      +Q   a      +Q
|---------------------------------------------------------------|
|---15b17==(17)-15b17==(17)-15b17==(17)-15b17==(17)-15b17==(17)r|
|---------------------------------------------------------------|
|---------------------------------------------------------------|
|---------------------------------------------------------------|
|---------------------------------------------------------------|


    ~~~~
                |------3-------|          |----3----|
   +W           Q  a      +Q   Q  a      +Q   Q  E  E
|-------------|---------------------------------------|
|-(15)--------|---15b17==(17)-15-15b17==(17)-15-15-13-|
|-------------|---------------------------------------|
|-------------|---------------------------------------|
|-------------|---------------------------------------|
|-------------|---------------------------------------|


   ~~~
   H.       +Q
|-----------------|
|-----------------|
|-10-------(10)\--|
|-----------------|
|-----------------|
|-----------------|


                                                                  ~~~~
  |----------3-----------|           |-------3-------|
  Q  a      +Q   a      +Q   a      +Q   a      +Q   Q    a      +W
|------------------------------------------------------|----------------*|
|---15b17==(17)-15b17==(17)-15b17==(17)-15b17==(17)-15-|-15b17==(17)----*|
|------------------------------------------------------|----------------*|
|------------------------------------------------------|----------------*|
|------------------------------------------------------|----------------*|
|------------------------------------------------------|----------------*|
Click here to return to http://www.mikesguitarsite.co.uk/tabs/jimi_hendrix/fire.php 
Comments