Hendrix Jimi - Angel (acoustic) Chords & Tabs

 

Angel (acoustic) Chords & Tabs

Hendrix Jimi Chords & Tabs

Version: 1 Type: Tab 5 ratings
1 star 2 stars 3 stars 4 stars 5 stars
comments

Angel (acoustic) Tab

Angel (acoustic) by Jimi Hendrix (the undisputed guitar god)

 this acoustic version is unbelievable

  bpm=70            tune a half step down

e|--2---2--------------2--2--2----0---2-2--------------------------------------------------------------------|
B|--0---0--------------2--2--2----5-------------------------0------------------------------------------------|
G|--4---4--2h4p2-------3--3--3----2-------------------------4------------------------------------------------|
D|--4-------------4----4--4--4----4---------------4-6-4-----6---------------6/8-6----------4-7-4---4---------|
A|--2---------------4--4--4--4----4-----------4-6-------6---7-----4/6--9-----------9-6---5-------5---5-7-----|
E|--------------------------------2--------------------------------------------------------------------------|


e|----x------------------------x--------------------------------------------0--0----------------|
B|----x-----------x------------x------------------------------x-------------0--0----------------|
G|----x-----------x------------x------------------------------x-------------1--1----------------|
D|----x-----------x------------x------------------------------x-------------2--2----------------|
A|----x-------4---x--6---------x-----4h6--4-------------2-----x---4/6----------2----------------|
E|--2-x--4/6--------------4----x--4----------6--4--2--------------------0-----------------------|
           

e|-------x---------------------------------x---------------------------x------------------------|
B|-------x---------------------------------x---------------------------x------------------------|
G|-------x---------------------------------x-----------6---------------x------------------------|
D|-------x---------------------------------x-----------6---------------x------------------------|
A|-------x-------------4--6--4-------------x-------4------6/8----------x------4h6--4------------|
E|---2---x--2--2--4/6-----------6----2--2--x--4/6----------------4--4--x---4----------6--4--2---|


e|----------------------0---0--------2--2--2h4p2--------------------------------------------|
B|------4---------------0---0--------2--2--2------2-----------------------------------------|
G|------4---------------1---1---------------------3----------1--1--1--1--1--1---------------|
D|------4---------------2---2---------------------4----------2--2--2--2--2--2---------------|
A|--2---2---4/6-------------2---------------------4----------2--2--2--2--2--2---------------|
E|----------------0--------------2--------------------2--0----------------------------------|


e|-----------------------------------------------------------------------------------4--4--4--4-------------------|
B|------4--4--4--4---------7--7--7--7-----7--7--7--7--7----------------------4h6p4---4--4--4--4-------------------|
G|------4--4--4--4---------7--7--7--7-----6--6--6--6--6-----3--3--3--3---------------4--4--4--4-----6--6--6--6----|
D|------4--4--4--4---------7--7--7--7--------4--4--4--4-----4--4--4--4---------------6--6--6--6-----8--8--8--8----|
A|--2---2--2--2--2--(0)-5--5--5--5--5---4----4--4--4--4-----4--4--4--4---------------6--6--6--6--8--8--8--8--8----|
E|-------------------------------------------------------2--2--2--2--2----4----------4--4--4--4--6-----6--6--6----|

                                        full
e|----------7--7--7--7------7--7--7-----------7------7------7------7------7------7------------|
B|----------7--7--7--7------7--7--7-----10b------10-----10-----10-----10-----10-----10--------|
G|----------8--8--8--8---------8--8-----------------------------------------------------------|
D|--------------------------------------------------------------------------------------------|
A|--------------------------------------------------------------------------------------------|
E|---7--7----------------7--------------------------------------------------------------------|


e|---------0--0--0--0---------0--2p0---0-----0--0--0--0--0--0--0--0--0--0--0--0---------------|
B|---------0--0--0--0---------0--0-----0-----5--5--5--5--5--5--5--5--5--5--5--5---------------|
G|--1--1---1--1--1--1------1--1--1-----1-----2--2--2--2--2--2--2--2--2--2--2--2---------------|
D|--2--2------2--2------2--2--2--2-----2-----4--4--4-----4--4--4--4--4--4--4--4---------------|
A|-----2----------------2--2--2--2-----2-----4--4--4--------4--4--4--4--4--4--4---------------|
E|-----0----------------0-----0---------------------------------------------------------------|


e|-------------------------------------------------------------------------------------------|
B|-----5--5---------------7--7---8--8--8--8-------9--9--9--9--9------------------------------|
G|-----5--5------6--6-----7--7---8--8--8--8-------9--9--9--9--9------------------------------|
D|-----5--5------7--7-----7--7---8--8--8--8-------9--9--9--9--9------------------------------|
A|--3------------7--7--5-----------------------7------------------------7--9--7--------------|
E|------------5---------------------------------------------------7--9-----------9--7--------|


e|-------0--------0-----0--0--0--0----0--0--0--0--0--0--0------------------------------------|
B|-------0--0-----0--0--0--0--0--0----5--5--5--5--5--5--5-------------------5----------------|
G|----1--1--1--1--1--1--1--1--1--1----2--2--2--2--2--2--2-------------------2----------------|
D|----2--2--2--2--2--2--2--2--2--2----4--4--4-----4--4--4---4---------------4----------------|
A|----2--2--2--2--2--2--2--2--2--2----4--4--4--------4--4---4---------------4----------------|
E|----0--0--0--0--0--0--0--0--0--0--------------------------2p0--2p0--2p0---2----------------|

[ Tab from: http://www.guitartabs.cc/tabs/h/hendrix_jimi/angel_acoustic_tab.html ]
e|-------------------------------------------------------------------------|
B|-----5---------------7--7----------9----9--9--9--9--9--9--9--9-----------|
G|-----5-----6--6------7--7------8---9----9--9--9--9--9--9--9--9-----------|
D|-----5-----7--7------7--7------9---9----9--9--9--9--9--9--9--9-----------|
A|--3--------7--7---5------------9---7----7--7--7--7--7--7--7--7-----------|
E|--------5-------------------7--------------------------------------------|


e|--------------------------------------------------0-----------0-----------0----------|
B|---5--5-----------------7--7--7--7----------------0-----------0-----------0----------|
G|---5--5-----------4--4--7--7--7--7---8--8--8------1-----1-----1---1-------1--x-------|
D|---5--5-----------5--5--7--7--7------8--8--8------2-----2--2------2---2---2--x-------|
A|---3--3-----------5--5--5--5--5------6--6--6------2-----2--2------2---2------x-------|
E|---------2/3--3---3---------------------------------------------------0--------------|


e|--0---------------------------------------------------------------------------------------------x----------------|
B|--5--5-2---5-2--------------7---7--4-----4h7--4-------------------------------------------------x----------------|
G|--2--2---2-----2--------2---4---------4--4------4--------4------6--6-----------8--8-------------x----------------|
D|--4---------------4-2-4-----6----------------------6-4-6--------7--7-----------9--9--9----------x----------------|
A|--4-------------------------6--------------------------------7--7--7--------9--9--9--9--11------x----4h6p4-------|
E|--2-------------------------4--------------------------------5--5--5--5--5--7--7--7------9------x-----------6\---|


e|-----2------------------------------------------------------------0--0----------|
B|-----2--------------6---------------------------------------------0--0----------|
G|-----3--------------6------------5--------------------------------1--1----------|
D|-----------------6--6------------6---------4-------------------2--2--2----------|
A|--------------4--4--4-/6------6--6--6--4-6----------2---4/6----2--2-------------|
E|--2------4/6---------------4--4--4--4--------6-4-2-----------0----0-------------|


e|-----2--2------------------------------------------------------------------------------------|
B|-----2--2----------------------------------------6-------------------------------------------|
G|--------------------------------------3----------6------------5------------------------------|
D|--------------------------------------4----------6------------6------------------------------|
A|--------------------4---6--4----------4------4-------4/6------6----4h6-4---------------------|
E|--2-------2--2--4/6-----------6\---2--2--4/6---------------4-----4--------6\4--2--4--2-------|


e|-------------------0--2p0--0----2--2--0------------------------------------------------------|
B|--------4----------0--0----0----2--2--0--0---------------------------------------------------|
G|-----4--4----------1--1----1----3--3--1--1--1--1--1--1--1-------4-------7--7--7\-------------|
D|-----4--4----------2--2----2----4-----2--2--2--2--2--2--2-------4-------7--7--7-\------------|
A|--2--2--2--4/6-----2------------------2--2--2--2--2--2--2---2------4-5-----------------------|
E|----------------0--0----------2--------------------------------------------------------------|


e|--------------------------------------------------------------------------------------------7----------|
B|--------------2--------2--------------------------------------------------------------------7----------|
G|-----3--3--3--3--3--3--3--3------------5--5-----------7--7-------------8-----------------8--8--8-------|
D|-----4--4--4--4--4--4--4--4---------6--6--6--------8--8--8--8-------9--9--9--9--9--9--9--9--9--9-------|
A|-----4--4--4--4--4--4--4--4--4------6--6--6--6--8--8--8--8--8----9--9--9--9--9--9--9--9--7--9--9-------|
E|--2--2--2--2--2--2--2--2--2--2--4---4--4--4--4--6--6--6--6--6----7--7--7--7--7--7--7--7--7--7--7-------|


e|---7---7---7---7---7---7---7---7---7---7---7---7---7---7---7--------0--0--0--0--0--0--0----------------|
B|--10--10--10--10--10--10--10--10--10--10--10--10--10--10--10-----0--0--0--0--0--0--0--0----------------|
G|---9---9---9---9---9---9---9---9---9---9---9---9---9---9---9-----1--1--1--1--1--1--1--1----------------|
D|---7---7---7---7---7---7---7---7---7---7---7---7---7---7---7-----2--2--2--2--2--2--2--2----------------|
A|-----------------------------------------------------------------2--2--2--2--2--2--2--2----------------|
E|-------------------------------7---7---7---7---7---7---7---7-----0--0--0--0--0--0--0--0----------------|



e|----------------------------------------------------------------------------------------------|
B|--5--5--5--------------------------------------------9--9--9--9-------------------------------|
G|--2--2--2-------------------5-----------7--7--8--8---9--9--9--9-------------------------------|
D|--4--4--4--4-4--4-4--4--4---5--5--7-----7--7--8--8---9--9--9--9-------------------------------|
A|--4--4--4--4-4--4-4--4--4---3-----7--7--5--5--6--6---7--7--7--7---------7--7--9--7------------|
E|--------2--0h2--0h2--2--2---------5-------------------------------7--9--------------9---------|


e|--0--0--0--0--0--0--0--0----------------------------------------------------------------------|
B|--0--0--0--0--0--0--0--0---5--5--5--5----------------5--5-------------------------------------|
G|--1--1--1--1--1--1--1--1---2--2--2--2---2-2--2-2--x--2--2----5--5--5---------7--7--7--8--8----|
D|--2--2--2--2--2--2--2--2---4--4--4--4---4-4--4-4--x--4--4----5--5--5---7-----7--7--7--8--8----|
A|--2--2--2--2--2--2--2--2---4--4--4--4---4-4--4-4--x--4--4----3---------7--7--5--------6--6----|
E|--0--0--0--0--0--0--0--0----------------0h2--0h2--x--2--2--------------5----------------------|


e|--------------------------------------------------------------------------------|
B|--9--9--9--9-------------------------------------------------9--9--9------------|
G|--9--9--9--9--------------------5--5--5---------7--7--8--8---9--9--9------------|
D|--9--9--9--9--------------------5--5--5---7-----7--7--8--8---9--9--9------------|
A|--7--7--7--7-------7-7--9--7----3---------7--7--5-----6--6---7--7--7------------|
E|--------------7--9-----------9------------5-------------------------------------|

       well that's all of it, it sounds like it when I play it but it will never sound like how Jimi played it
                 ENJOY  tabbed by tony_86
Comments